ISO-10303-21;
HEADER;
FILE_DESCRIPTION (( 'STEP AP203' ),
    '1' );
FILE_NAME ('110-0229E BK7 pl-cx 25.4 F175.STEP',
    '2018-12-21T06:49:40',
    ( '' ),
    ( '' ),
    'SwSTEP 2.0',
    'SolidWorks 2017',
    '' );
FILE_SCHEMA (( 'CONFIG_CONTROL_DESIGN' ));
ENDSEC;

DATA;
#1 = PERSON_AND_ORGANIZATION ( #173, #221 ) ;
#2 = CARTESIAN_POINT ( 'NONE',  ( 12.64702773848082600, -12.85137980337071000, 1.808638728343538300 ) ) ;
#3 = CIRCLE ( 'NONE', #39, 12.69999999999999900 ) ;
#4 = ORIENTED_EDGE ( 'NONE', *, *, #156, .F. ) ;
#5 = APPROVAL_PERSON_ORGANIZATION ( #76, #169, #202 ) ;
#6 = EDGE_LOOP ( 'NONE', ( #180, #72, #226, #197, #4 ) ) ;
#7 = LOCAL_TIME ( 8, 49, 40.00000000000000000, #33 ) ;
#8 = EDGE_CURVE ( 'NONE', #38, #118, #142, .T. ) ;
#9 = ADVANCED_FACE ( 'NONE', ( #42 ), #18, .T. ) ;
#10 = CARTESIAN_POINT ( 'NONE',  ( 8.455923624795215000, -12.85137980337071000, 1.212885114786893500 ) ) ;
#11 = CIRCLE ( 'NONE', #71, 12.69999999999999900 ) ;
#12 = CARTESIAN_POINT ( 'NONE',  ( 12.69999999999999900, 2.442490654175340100E-015, 0.8927461761123940400 ) ) ;
#13 = DIRECTION ( 'NONE',  ( 0.0000000000000000000, 0.0000000000000000000, 1.000000000000000000 ) ) ;
#14 = CARTESIAN_POINT ( 'NONE',  ( 12.81887323850601500, -4.312749671088369000, 0.5997121424447157100 ) ) ;
#15 = DATE_AND_TIME ( #205, #21 ) ;
#16 =( NAMED_UNIT ( * ) PLANE_ANGLE_UNIT ( ) SI_UNIT ( $, .RADIAN. ) );
#17 = PLANE ( 'NONE',  #218 ) ;
#18 = CYLINDRICAL_SURFACE ( 'NONE', #152, 12.69999999999999900 ) ;
#19 = DATE_AND_TIME ( #116, #161 ) ;
#20 = CC_DESIGN_SECURITY_CLASSIFICATION ( #151, ( #233 ) ) ;
#21 = LOCAL_TIME ( 8, 49, 40.00000000000000000, #162 ) ;
#22 = EDGE_CURVE ( 'NONE', #128, #120, #11, .T. ) ;
#23 =( BOUNDED_SURFACE ( )  B_SPLINE_SURFACE ( 3, 3, ( 
 ( #135, #136, #45, #108 ),
 ( #175, #154, #234, #189 ),
 ( #187, #43, #64, #83 ),
 ( #210, #174, #105, #207 ) ),
 .UNSPECIFIED., .F., .F., .T. ) 
 B_SPLINE_SURFACE_WITH_KNOTS ( ( 4, 4 ),
 ( 4, 4 ),
 ( 0.0000000000000000000, 1.000000000000000000 ),
 ( 0.0000000000000000000, 1.000000000000000000 ),
 .UNSPECIFIED. ) 
 GEOMETRIC_REPRESENTATION_ITEM ( )  RATIONAL_B_SPLINE_SURFACE ( (
 ( 1.000000000000000000, 0.9983392080209987400, 0.9983392080209987400, 1.000000000000000000),
 ( 0.9932858604123817600, 0.9916362192225535200, 0.9916362192225535200, 0.9932858604123817600),
 ( 0.9932858604123817600, 0.9916362192225535200, 0.9916362192225535200, 0.9932858604123817600),
 ( 1.000000000000000000, 0.9983392080209987400, 0.9983392080209987400, 1.000000000000000000) ) ) 
 REPRESENTATION_ITEM ( '' )  SURFACE ( )  );
#24 = ADVANCED_FACE ( 'NONE', ( #94 ), #23, .T. ) ;
#25 = PERSON_AND_ORGANIZATION ( #173, #221 ) ;
#26 = ORIENTED_EDGE ( 'NONE', *, *, #58, .F. ) ;
#27 = AXIS2_PLACEMENT_3D ( 'NONE', #49, #86, #160 ) ;
#28 = APPROVAL_DATE_TIME ( #224, #169 ) ;
#29 = ORIENTED_EDGE ( 'NONE', *, *, #150, .F. ) ;
#30 = DESIGN_CONTEXT ( 'detailed design', #163, 'design' ) ;
#31 = CARTESIAN_POINT ( 'NONE',  ( -12.69999999999999900, 3.997792089092478900E-015, 3.000000000000000000 ) ) ;
#32 = ORIENTED_EDGE ( 'NONE', *, *, #22, .F. ) ;
#33 = COORDINATED_UNIVERSAL_TIME_OFFSET ( 2, 0, .AHEAD. ) ;
#34 = CARTESIAN_POINT ( 'NONE',  ( 8.570821168591720600, -4.312749671088371700, -0.004136462261664239400 ) ) ;
#35 = APPLICATION_PROTOCOL_DEFINITION ( 'international standard', 'config_control_design', 1994, #127 ) ;
#36 = LINE ( 'NONE', #193, #171 ) ;
#37 = DATE_TIME_ROLE ( 'classification_date' ) ;
#38 = VERTEX_POINT ( 'NONE', #12 ) ;
#39 = AXIS2_PLACEMENT_3D ( 'NONE', #230, #109, #119 ) ;
#40 = PERSON_AND_ORGANIZATION ( #173, #221 ) ;
#41 = ORIENTED_EDGE ( 'NONE', *, *, #150, .T. ) ;
#42 = FACE_OUTER_BOUND ( 'NONE', #6, .T. ) ;
#43 = CARTESIAN_POINT ( 'NONE',  ( -8.570821168591781000, 4.312749671088397500, -0.004136462261665539500 ) ) ;
#44 = VERTEX_POINT ( 'NONE', #81 ) ;
#45 = CARTESIAN_POINT ( 'NONE',  ( -4.233234704078973300, -12.85137980337071000, 0.9142643876459654000 ) ) ;
#46 =( LENGTH_UNIT ( ) NAMED_UNIT ( * ) SI_UNIT ( .MILLI., .METRE. ) );
#47 = CARTESIAN_POINT ( 'NONE',  ( -7.105427357601000300E-015, 2.131628207280299900E-014, 90.78000000000000100 ) ) ;
#48 = CARTESIAN_POINT ( 'NONE',  ( 4.290755123065040700, 4.312749671088397500, -0.3068147932312935700 ) ) ;
#49 = CARTESIAN_POINT ( 'NONE',  ( 4.996003610813200500E-016, 2.442490654175340100E-015, 0.8927461761123940400 ) ) ;
#50 = AXIS2_PLACEMENT_3D ( 'NONE', #177, #139, #191 ) ;
#51 = CARTESIAN_POINT ( 'NONE',  ( -7.105427357601000300E-015, -12.70000000000001700, 0.8927461761123911500 ) ) ;
#52 = FACE_OUTER_BOUND ( 'NONE', #176, .T. ) ;
#53 = ORIENTED_EDGE ( 'NONE', *, *, #58, .T. ) ;
#54 = PERSON_AND_ORGANIZATION_ROLE ( 'classification_officer' ) ;
#55 = PERSON_AND_ORGANIZATION_ROLE ( 'design_owner' ) ;
#56 = SECURITY_CLASSIFICATION_LEVEL ( 'unclassified' ) ;
#57 = CALENDAR_DATE ( 2018, 21, 12 ) ;
#58 = EDGE_CURVE ( 'NONE', #120, #128, #3, .T. ) ;
#59 = ADVANCED_FACE ( 'NONE', ( #166 ), #96, .T. ) ;
#60 = CARTESIAN_POINT ( 'NONE',  ( 4.996003610813200500E-016, 2.442490654175340100E-015, 3.000000000000000000 ) ) ;
#61 = ORIENTED_EDGE ( 'NONE', *, *, #95, .F. ) ;
#62 = CC_DESIGN_PERSON_AND_ORGANIZATION_ASSIGNMENT ( #170, #55, ( #117 ) ) ;
#63 = DIRECTION ( 'NONE',  ( 1.000000000000000000, 0.0000000000000000000, 0.0000000000000000000 ) ) ;
#64 = CARTESIAN_POINT ( 'NONE',  ( -4.290755123065087800, 4.312749671088398400, -0.3068147932312972300 ) ) ;
#65 = CC_DESIGN_APPROVAL ( #169, ( #233 ) ) ;
#66 = CARTESIAN_POINT ( 'NONE',  ( 12.69999999999999900, 2.442490654175340100E-015, 0.8927461761123940400 ) ) ;
#67 = APPROVAL_PERSON_ORGANIZATION ( #70, #164, #220 ) ;
#68 = DIRECTION ( 'NONE',  ( 1.000000000000000000, 0.0000000000000000000, 0.0000000000000000000 ) ) ;
#69 = CARTESIAN_POINT ( 'NONE',  ( -7.105427357601000300E-015, 12.70000000000004200, 0.8927461761123911500 ) ) ;
#70 = PERSON_AND_ORGANIZATION ( #173, #221 ) ;
#71 = AXIS2_PLACEMENT_3D ( 'NONE', #60, #153, #138 ) ;
#72 = ORIENTED_EDGE ( 'NONE', *, *, #121, .T. ) ;
#73 = APPROVAL_STATUS ( 'not_yet_approved' ) ;
#74 = PRODUCT_RELATED_PRODUCT_CATEGORY ( 'detail', '', ( #117 ) ) ;
#75 =( GEOMETRIC_REPRESENTATION_CONTEXT ( 3 ) GLOBAL_UNCERTAINTY_ASSIGNED_CONTEXT ( ( #114 ) ) GLOBAL_UNIT_ASSIGNED_CONTEXT ( ( #46, #16, #143 ) ) REPRESENTATION_CONTEXT ( 'NONE', 'WORKASPACE' ) );
#76 = PERSON_AND_ORGANIZATION ( #173, #221 ) ;
#77 = PRODUCT_DEFINITION ( 'UNKNOWN', '', #233, #30 ) ;
#78 = DATE_AND_TIME ( #57, #125 ) ;
#79 = ADVANCED_FACE ( 'NONE', ( #149 ), #17, .T. ) ;
#80 = VECTOR ( 'NONE', #219, 1000.000000000000000 ) ;
#81 = CARTESIAN_POINT ( 'NONE',  ( -12.69999999999999900, 3.997792089092478900E-015, 0.8927461761123940400 ) ) ;
#82 = DIRECTION ( 'NONE',  ( -0.0000000000000000000, -0.0000000000000000000, -1.000000000000000000 ) ) ;
#83 = CARTESIAN_POINT ( 'NONE',  ( -2.775557561562891400E-014, 4.312749671088396600, -0.3068147932312982300 ) ) ;
#84 = CARTESIAN_POINT ( 'NONE',  ( 0.0000000000000000000, 0.0000000000000000000, 0.0000000000000000000 ) ) ;
#85 = ADVANCED_BREP_SHAPE_REPRESENTATION ( '110-0229E BK7 pl-cx 25.4 F175', ( #145, #103 ), #75 ) ;
#86 = DIRECTION ( 'NONE',  ( -0.0000000000000000000, -0.0000000000000000000, -1.000000000000000000 ) ) ;
#87 = CC_DESIGN_PERSON_AND_ORGANIZATION_ASSIGNMENT ( #107, #54, ( #151 ) ) ;
#88 = DIRECTION ( 'NONE',  ( -0.0000000000000000000, -0.0000000000000000000, -1.000000000000000000 ) ) ;
#89 = CARTESIAN_POINT ( 'NONE',  ( 4.290755123065040700, -4.312749671088371700, -0.3068147932312950700 ) ) ;
#90 = DIRECTION ( 'NONE',  ( 1.000000000000000000, 0.0000000000000000000, 0.0000000000000000000 ) ) ;
#91 = MECHANICAL_CONTEXT ( 'NONE', #127, 'mechanical' ) ;
#92 = ORIENTED_EDGE ( 'NONE', *, *, #121, .F. ) ;
#93 = APPLICATION_PROTOCOL_DEFINITION ( 'international standard', 'config_control_design', 1994, #163 ) ;
#94 = FACE_OUTER_BOUND ( 'NONE', #214, .T. ) ;
#95 = EDGE_CURVE ( 'NONE', #118, #115, #102, .T. ) ;
#96 =( BOUNDED_SURFACE ( )  B_SPLINE_SURFACE ( 3, 3, ( 
 ( #211, #206, #10, #2 ),
 ( #215, #89, #34, #14 ),
 ( #112, #48, #196, #158 ),
 ( #157, #140, #216, #124 ) ),
 .UNSPECIFIED., .F., .F., .T. ) 
 B_SPLINE_SURFACE_WITH_KNOTS ( ( 4, 4 ),
 ( 4, 4 ),
 ( 0.0000000000000000000, 1.000000000000000000 ),
 ( 0.0000000000000000000, 1.000000000000000000 ),
 .UNSPECIFIED. ) 
 GEOMETRIC_REPRESENTATION_ITEM ( )  RATIONAL_B_SPLINE_SURFACE ( (
 ( 1.000000000000000000, 0.9983392080209987400, 0.9983392080209987400, 1.000000000000000000),
 ( 0.9932858604123817600, 0.9916362192225535200, 0.9916362192225535200, 0.9932858604123817600),
 ( 0.9932858604123817600, 0.9916362192225535200, 0.9916362192225535200, 0.9932858604123817600),
 ( 1.000000000000000000, 0.9983392080209987400, 0.9983392080209987400, 1.000000000000000000) ) ) 
 REPRESENTATION_ITEM ( '' )  SURFACE ( )  );
#97 = ORIENTED_EDGE ( 'NONE', *, *, #156, .T. ) ;
#98 = EDGE_LOOP ( 'NONE', ( #26, #32 ) ) ;
#99 = AXIS2_PLACEMENT_3D ( 'NONE', #155, #88, #217 ) ;
#100 = LINE ( 'NONE', #66, #80 ) ;
#101 = COORDINATED_UNIVERSAL_TIME_OFFSET ( 2, 0, .AHEAD. ) ;
#102 = CIRCLE ( 'NONE', #203, 90.78000000000000100 ) ;
#103 = AXIS2_PLACEMENT_3D ( 'NONE', #84, #111, #181 ) ;
#104 = EDGE_LOOP ( 'NONE', ( #228, #183, #97 ) ) ;
#105 = CARTESIAN_POINT ( 'NONE',  ( -4.233234704078973300, 12.85137980337073700, 0.9142643876459654000 ) ) ;
#106 = AXIS2_PLACEMENT_3D ( 'NONE', #110, #144, #90 ) ;
#107 = PERSON_AND_ORGANIZATION ( #173, #221 ) ;
#108 = CARTESIAN_POINT ( 'NONE',  ( -2.949029909160572100E-014, -12.85137980337071000, 0.9142643876459642900 ) ) ;
#109 = DIRECTION ( 'NONE',  ( -0.0000000000000000000, -0.0000000000000000000, -1.000000000000000000 ) ) ;
#110 = CARTESIAN_POINT ( 'NONE',  ( 4.996003610813200500E-016, 2.442490654175340100E-015, 0.8927461761123940400 ) ) ;
#111 = DIRECTION ( 'NONE',  ( 0.0000000000000000000, 0.0000000000000000000, 1.000000000000000000 ) ) ;
#112 = CARTESIAN_POINT ( 'NONE',  ( -7.105427357601000300E-015, 4.312749671088395700, -0.3068147932312935100 ) ) ;
#113 = CC_DESIGN_DATE_AND_TIME_ASSIGNMENT ( #78, #37, ( #151 ) ) ;
#114 = UNCERTAINTY_MEASURE_WITH_UNIT (LENGTH_MEASURE( 1.000000000000000100E-005 ), #46, 'distance_accuracy_value', 'NONE');
#115 = VERTEX_POINT ( 'NONE', #69 ) ;
#116 = CALENDAR_DATE ( 2018, 21, 12 ) ;
#117 = PRODUCT ( '110-0229E BK7 pl-cx 25.4 F175', '110-0229E BK7 pl-cx 25.4 F175', '', ( #91 ) ) ;
#118 = VERTEX_POINT ( 'NONE', #51 ) ;
#119 = DIRECTION ( 'NONE',  ( 1.000000000000000000, 0.0000000000000000000, 0.0000000000000000000 ) ) ;
#120 = VERTEX_POINT ( 'NONE', #195 ) ;
#121 = EDGE_CURVE ( 'NONE', #44, #128, #36, .T. ) ;
#122 = DIRECTION ( 'NONE',  ( 0.0000000000000000000, -1.000000000000000000, -3.057454903682409200E-016 ) ) ;
#123 = DIRECTION ( 'NONE',  ( 1.000000000000000000, 0.0000000000000000000, -0.0000000000000000000 ) ) ;
#124 = CARTESIAN_POINT ( 'NONE',  ( 12.64702773848082800, 12.85137980337073700, 1.808638728343538300 ) ) ;
#125 = LOCAL_TIME ( 8, 49, 40.00000000000000000, #129 ) ;
#126 = APPROVAL_STATUS ( 'not_yet_approved' ) ;
#127 = APPLICATION_CONTEXT ( 'configuration controlled 3d designs of mechanical parts and assemblies' ) ;
#128 = VERTEX_POINT ( 'NONE', #31 ) ;
#129 = COORDINATED_UNIVERSAL_TIME_OFFSET ( 2, 0, .AHEAD. ) ;
#130 = CC_DESIGN_APPROVAL ( #225, ( #151 ) ) ;
#131 = APPROVAL_ROLE ( '' ) ;
#132 = EDGE_CURVE ( 'NONE', #44, #115, #227, .T. ) ;
#133 = ORIENTED_EDGE ( 'NONE', *, *, #137, .T. ) ;
#134 = ADVANCED_FACE ( 'NONE', ( #52 ), #141, .T. ) ;
#135 = CARTESIAN_POINT ( 'NONE',  ( -12.64702773848089600, -12.85137980337071000, 1.808638728343539400 ) ) ;
#136 = CARTESIAN_POINT ( 'NONE',  ( -8.455923624795273600, -12.85137980337071000, 1.212885114786890700 ) ) ;
#137 = EDGE_CURVE ( 'NONE', #38, #120, #100, .T. ) ;
#138 = DIRECTION ( 'NONE',  ( 1.000000000000000000, 0.0000000000000000000, 0.0000000000000000000 ) ) ;
#139 = DIRECTION ( 'NONE',  ( -0.0000000000000000000, -0.0000000000000000000, -1.000000000000000000 ) ) ;
#140 = CARTESIAN_POINT ( 'NONE',  ( 4.233234704078926200, 12.85137980337073700, 0.9142643876459688500 ) ) ;
#141 = CYLINDRICAL_SURFACE ( 'NONE', #106, 12.69999999999999900 ) ;
#142 = CIRCLE ( 'NONE', #182, 12.69999999999999900 ) ;
#143 =( NAMED_UNIT ( * ) SI_UNIT ( $, .STERADIAN. ) SOLID_ANGLE_UNIT ( ) );
#144 = DIRECTION ( 'NONE',  ( 0.0000000000000000000, 0.0000000000000000000, 1.000000000000000000 ) ) ;
#145 = MANIFOLD_SOLID_BREP ( 'Imported1', #223 ) ;
#146 = APPROVAL_DATE_TIME ( #19, #225 ) ;
#147 = SHAPE_DEFINITION_REPRESENTATION ( #167, #85 ) ;
#148 = DATE_AND_TIME ( #186, #194 ) ;
#149 = FACE_OUTER_BOUND ( 'NONE', #98, .T. ) ;
#150 = EDGE_CURVE ( 'NONE', #118, #44, #192, .T. ) ;
#151 = SECURITY_CLASSIFICATION ( '', '', #56 ) ;
#152 = AXIS2_PLACEMENT_3D ( 'NONE', #213, #172, #63 ) ;
#153 = DIRECTION ( 'NONE',  ( -0.0000000000000000000, -0.0000000000000000000, -1.000000000000000000 ) ) ;
#154 = CARTESIAN_POINT ( 'NONE',  ( -8.570821168591781000, -4.312749671088371700, -0.004136462261666839700 ) ) ;
#155 = CARTESIAN_POINT ( 'NONE',  ( 4.996003610813200500E-016, 2.442490654175340100E-015, 0.8927461761123940400 ) ) ;
#156 = EDGE_CURVE ( 'NONE', #115, #38, #204, .T. ) ;
#157 = CARTESIAN_POINT ( 'NONE',  ( -7.105427357601000300E-015, 12.85137980337073700, 0.9142643876459688500 ) ) ;
#158 = CARTESIAN_POINT ( 'NONE',  ( 12.81887323850601500, 4.312749671088395700, 0.5997121424447173800 ) ) ;
#159 = CC_DESIGN_PERSON_AND_ORGANIZATION_ASSIGNMENT ( #185, #222, ( #233 ) ) ;
#160 = DIRECTION ( 'NONE',  ( 1.000000000000000000, 8.881784197001252300E-016, 0.0000000000000000000 ) ) ;
#161 = LOCAL_TIME ( 8, 49, 40.00000000000000000, #101 ) ;
#162 = COORDINATED_UNIVERSAL_TIME_OFFSET ( 2, 0, .AHEAD. ) ;
#163 = APPLICATION_CONTEXT ( 'configuration controlled 3d designs of mechanical parts and assemblies' ) ;
#164 = APPROVAL ( #73, 'UNSPECIFIED' ) ;
#165 = PERSON_AND_ORGANIZATION_ROLE ( 'creator' ) ;
#166 = FACE_OUTER_BOUND ( 'NONE', #104, .T. ) ;
#167 = PRODUCT_DEFINITION_SHAPE ( 'NONE', 'NONE',  #77 ) ;
#168 = DATE_TIME_ROLE ( 'creation_date' ) ;
#169 = APPROVAL ( #126, 'UNSPECIFIED' ) ;
#170 = PERSON_AND_ORGANIZATION ( #173, #221 ) ;
#171 = VECTOR ( 'NONE', #13, 1000.000000000000000 ) ;
#172 = DIRECTION ( 'NONE',  ( 0.0000000000000000000, 0.0000000000000000000, 1.000000000000000000 ) ) ;
#173 = PERSON ( 'UNSPECIFIED', 'UNSPECIFIED', 'UNSPECIFIED', ('UNSPECIFIED'), ('UNSPECIFIED'), ('UNSPECIFIED') ) ;
#174 = CARTESIAN_POINT ( 'NONE',  ( -8.455923624795273600, 12.85137980337073700, 1.212885114786890700 ) ) ;
#175 = CARTESIAN_POINT ( 'NONE',  ( -12.81887323850608600, -4.312749671088369000, 0.5997121424447172700 ) ) ;
#176 = EDGE_LOOP ( 'NONE', ( #92, #29, #231, #133, #53 ) ) ;
#177 = CARTESIAN_POINT ( 'NONE',  ( 4.996003610813200500E-016, 2.442490654175340100E-015, 0.8927461761123940400 ) ) ;
#178 = DIRECTION ( 'NONE',  ( 0.0000000000000000000, 0.0000000000000000000, 1.000000000000000000 ) ) ;
#179 = PERSON_AND_ORGANIZATION_ROLE ( 'creator' ) ;
#180 = ORIENTED_EDGE ( 'NONE', *, *, #132, .F. ) ;
#181 = DIRECTION ( 'NONE',  ( 1.000000000000000000, 0.0000000000000000000, 0.0000000000000000000 ) ) ;
#182 = AXIS2_PLACEMENT_3D ( 'NONE', #229, #82, #188 ) ;
#183 = ORIENTED_EDGE ( 'NONE', *, *, #95, .T. ) ;
#184 = CC_DESIGN_APPROVAL ( #164, ( #77 ) ) ;
#185 = PERSON_AND_ORGANIZATION ( #173, #221 ) ;
#186 = CALENDAR_DATE ( 2018, 21, 12 ) ;
#187 = CARTESIAN_POINT ( 'NONE',  ( -12.81887323850608400, 4.312749671088395700, 0.5997121424447186000 ) ) ;
#188 = DIRECTION ( 'NONE',  ( 1.000000000000000000, 0.0000000000000000000, 0.0000000000000000000 ) ) ;
#189 = CARTESIAN_POINT ( 'NONE',  ( -2.949029909160572100E-014, -4.312749671088369000, -0.3068147932312999500 ) ) ;
#190 = CALENDAR_DATE ( 2018, 21, 12 ) ;
#191 = DIRECTION ( 'NONE',  ( 1.000000000000000000, -8.881784197001252300E-016, 0.0000000000000000000 ) ) ;
#192 = CIRCLE ( 'NONE', #99, 12.69999999999999900 ) ;
#193 = CARTESIAN_POINT ( 'NONE',  ( -12.69999999999999900, 3.997792089092478900E-015, 0.8927461761123940400 ) ) ;
#194 = LOCAL_TIME ( 8, 49, 40.00000000000000000, #208 ) ;
#195 = CARTESIAN_POINT ( 'NONE',  ( 12.69999999999999900, 2.442490654175340100E-015, 3.000000000000000000 ) ) ;
#196 = CARTESIAN_POINT ( 'NONE',  ( 8.570821168591720600, 4.312749671088397500, -0.004136462261662613100 ) ) ;
#197 = ORIENTED_EDGE ( 'NONE', *, *, #137, .F. ) ;
#198 = APPROVAL_PERSON_ORGANIZATION ( #1, #225, #131 ) ;
#199 = CC_DESIGN_PERSON_AND_ORGANIZATION_ASSIGNMENT ( #25, #165, ( #77 ) ) ;
#200 = APPROVAL_STATUS ( 'not_yet_approved' ) ;
#201 = ORIENTED_EDGE ( 'NONE', *, *, #132, .T. ) ;
#202 = APPROVAL_ROLE ( '' ) ;
#203 = AXIS2_PLACEMENT_3D ( 'NONE', #47, #68, #122 ) ;
#204 = CIRCLE ( 'NONE', #50, 12.69999999999999900 ) ;
#205 = CALENDAR_DATE ( 2018, 21, 12 ) ;
#206 = CARTESIAN_POINT ( 'NONE',  ( 4.233234704078926200, -12.85137980337071000, 0.9142643876459688500 ) ) ;
#207 = CARTESIAN_POINT ( 'NONE',  ( -2.949029909160572100E-014, 12.85137980337073700, 0.9142643876459642900 ) ) ;
#208 = COORDINATED_UNIVERSAL_TIME_OFFSET ( 2, 0, .AHEAD. ) ;
#209 = CC_DESIGN_PERSON_AND_ORGANIZATION_ASSIGNMENT ( #40, #179, ( #233 ) ) ;
#210 = CARTESIAN_POINT ( 'NONE',  ( -12.64702773848089600, 12.85137980337073700, 1.808638728343539400 ) ) ;
#211 = CARTESIAN_POINT ( 'NONE',  ( -7.105427357601000300E-015, -12.85137980337071000, 0.9142643876459688500 ) ) ;
#212 = CC_DESIGN_DATE_AND_TIME_ASSIGNMENT ( #148, #168, ( #77 ) ) ;
#213 = CARTESIAN_POINT ( 'NONE',  ( 4.996003610813200500E-016, 2.442490654175340100E-015, 0.8927461761123940400 ) ) ;
#214 = EDGE_LOOP ( 'NONE', ( #61, #41, #201 ) ) ;
#215 = CARTESIAN_POINT ( 'NONE',  ( -7.105427357601000300E-015, -4.312749671088369000, -0.3068147932312950100 ) ) ;
#216 = CARTESIAN_POINT ( 'NONE',  ( 8.455923624795216800, 12.85137980337073700, 1.212885114786893300 ) ) ;
#217 = DIRECTION ( 'NONE',  ( 1.000000000000000000, 0.0000000000000000000, 0.0000000000000000000 ) ) ;
#218 = AXIS2_PLACEMENT_3D ( 'NONE', #235, #178, #123 ) ;
#219 = DIRECTION ( 'NONE',  ( 0.0000000000000000000, 0.0000000000000000000, 1.000000000000000000 ) ) ;
#220 = APPROVAL_ROLE ( '' ) ;
#221 = ORGANIZATION ( 'UNSPECIFIED', 'UNSPECIFIED', '' ) ;
#222 = PERSON_AND_ORGANIZATION_ROLE ( 'design_supplier' ) ;
#223 = CLOSED_SHELL ( 'NONE', ( #59, #9, #24, #134, #79 ) ) ;
#224 = DATE_AND_TIME ( #190, #7 ) ;
#225 = APPROVAL ( #200, 'UNSPECIFIED' ) ;
#226 = ORIENTED_EDGE ( 'NONE', *, *, #22, .T. ) ;
#227 = CIRCLE ( 'NONE', #27, 12.69999999999999900 ) ;
#228 = ORIENTED_EDGE ( 'NONE', *, *, #8, .T. ) ;
#229 = CARTESIAN_POINT ( 'NONE',  ( 4.996003610813200500E-016, 2.442490654175340100E-015, 0.8927461761123940400 ) ) ;
#230 = CARTESIAN_POINT ( 'NONE',  ( 4.996003610813200500E-016, 2.442490654175340100E-015, 3.000000000000000000 ) ) ;
#231 = ORIENTED_EDGE ( 'NONE', *, *, #8, .F. ) ;
#232 = APPROVAL_DATE_TIME ( #15, #164 ) ;
#233 = PRODUCT_DEFINITION_FORMATION_WITH_SPECIFIED_SOURCE ( 'ANY', '', #117, .NOT_KNOWN. ) ;
#234 = CARTESIAN_POINT ( 'NONE',  ( -4.290755123065089500, -4.312749671088370800, -0.3068147932312989500 ) ) ;
#235 = CARTESIAN_POINT ( 'NONE',  ( 0.0000000000000000000, 26.11199999999999800, 3.000000000000000000 ) ) ;
ENDSEC;
END-ISO-10303-21;
