ISO-10303-21;
HEADER;
FILE_DESCRIPTION (( 'STEP AP203' ),
    '1' );
FILE_NAME ('110-0227E BK7 pl-cx 25.4 F150.STEP',
    '2018-12-21T06:49:52',
    ( '' ),
    ( '' ),
    'SwSTEP 2.0',
    'SolidWorks 2017',
    '' );
FILE_SCHEMA (( 'CONFIG_CONTROL_DESIGN' ));
ENDSEC;

DATA;
#1 = FACE_OUTER_BOUND ( 'NONE', #179, .T. ) ;
#2 = CC_DESIGN_PERSON_AND_ORGANIZATION_ASSIGNMENT ( #18, #37, ( #140 ) ) ;
#3 = EDGE_CURVE ( 'NONE', #98, #81, #217, .T. ) ;
#4 = MANIFOLD_SOLID_BREP ( 'Imported1', #42 ) ;
#5 = CIRCLE ( 'NONE', #123, 12.69999999999999900 ) ;
#6 = CARTESIAN_POINT ( 'NONE',  ( 12.69999999999999900, 2.442490654175340100E-015, 1.043431104418900000 ) ) ;
#7 = DIRECTION ( 'NONE',  ( 1.000000000000000000, 0.0000000000000000000, 0.0000000000000000000 ) ) ;
#8 = APPROVAL_DATE_TIME ( #36, #133 ) ;
#9 = CARTESIAN_POINT ( 'NONE',  ( -2.131628207280299900E-014, 12.85100735937248500, 1.068565886156683100 ) ) ;
#10 = ORIENTED_EDGE ( 'NONE', *, *, #149, .F. ) ;
#11 = CARTESIAN_POINT ( 'NONE',  ( 4.996003610813200500E-016, 2.442490654175340100E-015, 1.043431104418900000 ) ) ;
#12 = CARTESIAN_POINT ( 'NONE',  ( 0.0000000000000000000, 0.0000000000000000000, 0.0000000000000000000 ) ) ;
#13 = CARTESIAN_POINT ( 'NONE',  ( 4.302514693083124600, -4.323249957056301400, -0.3594797895800389600 ) ) ;
#14 = APPROVAL_DATE_TIME ( #197, #67 ) ;
#15 = APPROVAL_STATUS ( 'not_yet_approved' ) ;
#16 = APPROVAL_ROLE ( '' ) ;
#17 = EDGE_CURVE ( 'NONE', #20, #98, #175, .T. ) ;
#18 = PERSON_AND_ORGANIZATION ( #227, #214 ) ;
#19 = PERSON_AND_ORGANIZATION_ROLE ( 'design_owner' ) ;
#20 = VERTEX_POINT ( 'NONE', #60 ) ;
#21 = CC_DESIGN_DATE_AND_TIME_ASSIGNMENT ( #104, #158, ( #90 ) ) ;
#22 = CIRCLE ( 'NONE', #232, 12.69999999999999900 ) ;
#23 = CALENDAR_DATE ( 2018, 21, 12 ) ;
#24 = SHAPE_DEFINITION_REPRESENTATION ( #171, #29 ) ;
#25 = DIRECTION ( 'NONE',  ( -0.0000000000000000000, -0.0000000000000000000, -1.000000000000000000 ) ) ;
#26 = EDGE_CURVE ( 'NONE', #203, #77, #225, .T. ) ;
#27 = CALENDAR_DATE ( 2018, 21, 12 ) ;
#28 = CARTESIAN_POINT ( 'NONE',  ( -3.816391647148975600E-014, -12.85100735937249700, 1.068565886156684900 ) ) ;
#29 = ADVANCED_BREP_SHAPE_REPRESENTATION ( '110-0227E BK7 pl-cx 25.4 F150', ( #4, #100 ), #75 ) ;
#30 = CARTESIAN_POINT ( 'NONE',  ( -8.590407156839569700, 4.323249957056289900, -0.005063504038077255700 ) ) ;
#31 = CARTESIAN_POINT ( 'NONE',  ( -2.131628207280299900E-014, -12.85100735937249700, 1.068565886156683100 ) ) ;
#32 = ORIENTED_EDGE ( 'NONE', *, *, #82, .F. ) ;
#33 = CARTESIAN_POINT ( 'NONE',  ( -2.131628207280299600E-014, 4.323249957056289900, -0.3594797895800421700 ) ) ;
#34 = CARTESIAN_POINT ( 'NONE',  ( 8.590407156839532400, -4.323249957056301400, -0.005063504038078231500 ) ) ;
#35 = PERSON_AND_ORGANIZATION ( #227, #214 ) ;
#36 = DATE_AND_TIME ( #23, #200 ) ;
#37 = PERSON_AND_ORGANIZATION_ROLE ( 'design_supplier' ) ;
#38 = CYLINDRICAL_SURFACE ( 'NONE', #58, 12.69999999999999900 ) ;
#39 = ORIENTED_EDGE ( 'NONE', *, *, #149, .T. ) ;
#40 = LOCAL_TIME ( 8, 49, 52.00000000000000000, #83 ) ;
#41 = CARTESIAN_POINT ( 'NONE',  ( 4.996003610813200500E-016, 2.442490654175340100E-015, 1.043431104418900000 ) ) ;
#42 = CLOSED_SHELL ( 'NONE', ( #161, #55, #218, #198, #144 ) ) ;
#43 = DIRECTION ( 'NONE',  ( 1.000000000000000000, 0.0000000000000000000, 0.0000000000000000000 ) ) ;
#44 = DESIGN_CONTEXT ( 'detailed design', #70, 'design' ) ;
#45 = CARTESIAN_POINT ( 'NONE',  ( 4.996003610813200500E-016, 2.442490654175340100E-015, 3.000000000000000000 ) ) ;
#46 = CARTESIAN_POINT ( 'NONE',  ( -2.131628207280299600E-014, -4.323249957056302300, -0.3594797895800389600 ) ) ;
#47 = CARTESIAN_POINT ( 'NONE',  ( -4.223913843764613300, -12.85100735937249700, 1.068565886156685800 ) ) ;
#48 = LOCAL_TIME ( 8, 49, 52.00000000000000000, #148 ) ;
#49 = CARTESIAN_POINT ( 'NONE',  ( -4.223913843764613300, 12.85100735937248500, 1.068565886156685800 ) ) ;
#50 = FACE_OUTER_BOUND ( 'NONE', #130, .T. ) ;
#51 = FACE_OUTER_BOUND ( 'NONE', #139, .T. ) ;
#52 = SECURITY_CLASSIFICATION_LEVEL ( 'unclassified' ) ;
#53 = APPROVAL_DATE_TIME ( #132, #212 ) ;
#54 = VECTOR ( 'NONE', #183, 1000.000000000000000 ) ;
#55 = ADVANCED_FACE ( 'NONE', ( #1 ), #165, .T. ) ;
#56 = ORIENTED_EDGE ( 'NONE', *, *, #82, .T. ) ;
#57 = CC_DESIGN_PERSON_AND_ORGANIZATION_ASSIGNMENT ( #126, #174, ( #90 ) ) ;
#58 = AXIS2_PLACEMENT_3D ( 'NONE', #68, #155, #192 ) ;
#59 =( BOUNDED_SURFACE ( )  B_SPLINE_SURFACE ( 3, 3, ( 
 ( #31, #106, #157, #85 ),
 ( #46, #13, #34, #208 ),
 ( #33, #230, #87, #206 ),
 ( #9, #172, #117, #103 ) ),
 .UNSPECIFIED., .F., .F., .F. ) 
 B_SPLINE_SURFACE_WITH_KNOTS ( ( 4, 4 ),
 ( 4, 4 ),
 ( 0.0000000000000000000, 1.000000000000000000 ),
 ( 0.0000000000000000000, 1.000000000000000000 ),
 .UNSPECIFIED. ) 
 GEOMETRIC_REPRESENTATION_ITEM ( )  RATIONAL_B_SPLINE_SURFACE ( (
 ( 1.000000000000000000, 0.9977343127031818000, 0.9977343127031818000, 1.000000000000000000),
 ( 0.9908446567608560900, 0.9885997126089128800, 0.9885997126089128800, 0.9908446567608560900),
 ( 0.9908446567608560900, 0.9885997126089128800, 0.9885997126089128800, 0.9908446567608560900),
 ( 1.000000000000000000, 0.9977343127031818000, 0.9977343127031818000, 1.000000000000000000) ) ) 
 REPRESENTATION_ITEM ( '' )  SURFACE ( )  );
#60 = CARTESIAN_POINT ( 'NONE',  ( -2.131628207280299900E-014, -12.70000000000002100, 1.043431104418900600 ) ) ;
#61 = SECURITY_CLASSIFICATION ( '', '', #52 ) ;
#62 = CARTESIAN_POINT ( 'NONE',  ( -3.989863994746656300E-014, -4.323249957056301400, -0.3594797895800367300 ) ) ;
#63 = PERSON_AND_ORGANIZATION ( #227, #214 ) ;
#64 = CARTESIAN_POINT ( 'NONE',  ( -8.433472585621176500, 12.85100735937248500, 1.416507488160504000 ) ) ;
#65 = CARTESIAN_POINT ( 'NONE',  ( -4.302514693083171700, 4.323249957056290800, -0.3594797895800392300 ) ) ;
#66 = EDGE_LOOP ( 'NONE', ( #127, #135, #210 ) ) ;
#67 = APPROVAL ( #15, 'UNSPECIFIED' ) ;
#68 = CARTESIAN_POINT ( 'NONE',  ( 4.996003610813200500E-016, 2.442490654175340100E-015, 1.043431104418900000 ) ) ;
#69 = COORDINATED_UNIVERSAL_TIME_OFFSET ( 2, 0, .AHEAD. ) ;
#70 = APPLICATION_CONTEXT ( 'configuration controlled 3d designs of mechanical parts and assemblies' ) ;
#71 = UNCERTAINTY_MEASURE_WITH_UNIT (LENGTH_MEASURE( 1.000000000000000100E-005 ), #176, 'distance_accuracy_value', 'NONE');
#72 =( NAMED_UNIT ( * ) PLANE_ANGLE_UNIT ( ) SI_UNIT ( $, .RADIAN. ) );
#73 = DIRECTION ( 'NONE',  ( 1.000000000000000000, 0.0000000000000000000, 0.0000000000000000000 ) ) ;
#74 = EDGE_CURVE ( 'NONE', #98, #77, #93, .T. ) ;
#75 =( GEOMETRIC_REPRESENTATION_CONTEXT ( 3 ) GLOBAL_UNCERTAINTY_ASSIGNED_CONTEXT ( ( #71 ) ) GLOBAL_UNIT_ASSIGNED_CONTEXT ( ( #176, #72, #215 ) ) REPRESENTATION_CONTEXT ( 'NONE', 'WORKASPACE' ) );
#76 = CALENDAR_DATE ( 2018, 21, 12 ) ;
#77 = VERTEX_POINT ( 'NONE', #113 ) ;
#78 = DIRECTION ( 'NONE',  ( -0.0000000000000000000, -0.0000000000000000000, -1.000000000000000000 ) ) ;
#79 = CARTESIAN_POINT ( 'NONE',  ( 4.996003610813200500E-016, 2.442490654175340100E-015, 1.043431104418900000 ) ) ;
#80 = DIRECTION ( 'NONE',  ( 0.0000000000000000000, 0.0000000000000000000, 1.000000000000000000 ) ) ;
#81 = VERTEX_POINT ( 'NONE', #97 ) ;
#82 = EDGE_CURVE ( 'NONE', #156, #203, #86, .T. ) ;
#83 = COORDINATED_UNIVERSAL_TIME_OFFSET ( 2, 0, .AHEAD. ) ;
#84 = DIRECTION ( 'NONE',  ( 1.000000000000000000, 0.0000000000000000000, 0.0000000000000000000 ) ) ;
#85 = CARTESIAN_POINT ( 'NONE',  ( 12.60006359426980400, -12.85100735937249700, 2.110025711565056500 ) ) ;
#86 = LINE ( 'NONE', #185, #102 ) ;
#87 = CARTESIAN_POINT ( 'NONE',  ( 8.590407156839532400, 4.323249957056289900, -0.005063504038081484100 ) ) ;
#88 = APPLICATION_PROTOCOL_DEFINITION ( 'international standard', 'config_control_design', 1994, #233 ) ;
#89 = EDGE_LOOP ( 'NONE', ( #231, #94, #142 ) ) ;
#90 = PRODUCT_DEFINITION ( 'UNKNOWN', '', #140, #44 ) ;
#91 = PERSON_AND_ORGANIZATION_ROLE ( 'creator' ) ;
#92 = DATE_TIME_ROLE ( 'classification_date' ) ;
#93 = LINE ( 'NONE', #114, #54 ) ;
#94 = ORIENTED_EDGE ( 'NONE', *, *, #17, .T. ) ;
#95 = PERSON_AND_ORGANIZATION ( #227, #214 ) ;
#96 = CC_DESIGN_PERSON_AND_ORGANIZATION_ASSIGNMENT ( #35, #19, ( #207 ) ) ;
#97 = CARTESIAN_POINT ( 'NONE',  ( -2.131628207280299900E-014, 12.70000000000000100, 1.043431104418900600 ) ) ;
#98 = VERTEX_POINT ( 'NONE', #128 ) ;
#99 = DIRECTION ( 'NONE',  ( 1.000000000000000000, 0.0000000000000000000, 0.0000000000000000000 ) ) ;
#100 = AXIS2_PLACEMENT_3D ( 'NONE', #12, #115, #73 ) ;
#101 = CARTESIAN_POINT ( 'NONE',  ( -8.433472585621176500, -12.85100735937249700, 1.416507488160504000 ) ) ;
#102 = VECTOR ( 'NONE', #150, 1000.000000000000000 ) ;
#103 = CARTESIAN_POINT ( 'NONE',  ( 12.60006359426980500, 12.85100735937248500, 2.110025711565056500 ) ) ;
#104 = DATE_AND_TIME ( #226, #48 ) ;
#105 = DIRECTION ( 'NONE',  ( -0.0000000000000000000, -0.0000000000000000000, -1.000000000000000000 ) ) ;
#106 = CARTESIAN_POINT ( 'NONE',  ( 4.223913843764563600, -12.85100735937249700, 1.068565886156683100 ) ) ;
#107 = APPROVAL_PERSON_ORGANIZATION ( #63, #133, #194 ) ;
#108 = EDGE_CURVE ( 'NONE', #81, #156, #5, .T. ) ;
#109 = CIRCLE ( 'NONE', #169, 77.81000000000000200 ) ;
#110 = AXIS2_PLACEMENT_3D ( 'NONE', #166, #187, #7 ) ;
#111 = LOCAL_TIME ( 8, 49, 52.00000000000000000, #69 ) ;
#112 = ORIENTED_EDGE ( 'NONE', *, *, #74, .T. ) ;
#113 = CARTESIAN_POINT ( 'NONE',  ( -12.69999999999999900, 3.997792089092478900E-015, 3.000000000000000000 ) ) ;
#114 = CARTESIAN_POINT ( 'NONE',  ( -12.69999999999999900, 3.997792089092478900E-015, 1.043431104418900000 ) ) ;
#115 = DIRECTION ( 'NONE',  ( 0.0000000000000000000, 0.0000000000000000000, 1.000000000000000000 ) ) ;
#116 = DIRECTION ( 'NONE',  ( 1.000000000000000000, 0.0000000000000000000, -0.0000000000000000000 ) ) ;
#117 = CARTESIAN_POINT ( 'NONE',  ( 8.433472585621139200, 12.85100735937248500, 1.416507488160499800 ) ) ;
#118 = CIRCLE ( 'NONE', #195, 12.69999999999999900 ) ;
#119 = CARTESIAN_POINT ( 'NONE',  ( -12.60006359426983200, 12.85100735937248500, 2.110025711565058200 ) ) ;
#120 = EDGE_CURVE ( 'NONE', #20, #81, #109, .T. ) ;
#121 = PERSON_AND_ORGANIZATION_ROLE ( 'classification_officer' ) ;
#122 = COORDINATED_UNIVERSAL_TIME_OFFSET ( 2, 0, .AHEAD. ) ;
#123 = AXIS2_PLACEMENT_3D ( 'NONE', #224, #129, #99 ) ;
#124 = ORIENTED_EDGE ( 'NONE', *, *, #26, .F. ) ;
#125 = CC_DESIGN_DATE_AND_TIME_ASSIGNMENT ( #152, #92, ( #61 ) ) ;
#126 = PERSON_AND_ORGANIZATION ( #227, #214 ) ;
#127 = ORIENTED_EDGE ( 'NONE', *, *, #199, .T. ) ;
#128 = CARTESIAN_POINT ( 'NONE',  ( -12.69999999999999900, 3.997792089092478900E-015, 1.043431104418900000 ) ) ;
#129 = DIRECTION ( 'NONE',  ( -0.0000000000000000000, -0.0000000000000000000, -1.000000000000000000 ) ) ;
#130 = EDGE_LOOP ( 'NONE', ( #178, #145, #181, #56, #228 ) ) ;
#131 = CARTESIAN_POINT ( 'NONE',  ( -2.131628207280299900E-014, -2.131628207280299900E-014, 77.81000000000000200 ) ) ;
#132 = DATE_AND_TIME ( #27, #186 ) ;
#133 = APPROVAL ( #138, 'UNSPECIFIED' ) ;
#134 = CARTESIAN_POINT ( 'NONE',  ( -8.590407156839569700, -4.323249957056301400, -0.005063504038074111500 ) ) ;
#135 = ORIENTED_EDGE ( 'NONE', *, *, #120, .T. ) ;
#136 = DIRECTION ( 'NONE',  ( 0.0000000000000000000, 0.0000000000000000000, 1.000000000000000000 ) ) ;
#137 = DIRECTION ( 'NONE',  ( 0.0000000000000000000, -1.000000000000000000, -3.567096210722132400E-016 ) ) ;
#138 = APPROVAL_STATUS ( 'not_yet_approved' ) ;
#139 = EDGE_LOOP ( 'NONE', ( #124, #10 ) ) ;
#140 = PRODUCT_DEFINITION_FORMATION_WITH_SPECIFIED_SOURCE ( 'ANY', '', #207, .NOT_KNOWN. ) ;
#141 = APPLICATION_PROTOCOL_DEFINITION ( 'international standard', 'config_control_design', 1994, #70 ) ;
#142 = ORIENTED_EDGE ( 'NONE', *, *, #3, .T. ) ;
#143 = AXIS2_PLACEMENT_3D ( 'NONE', #45, #78, #84 ) ;
#144 = ADVANCED_FACE ( 'NONE', ( #51 ), #182, .T. ) ;
#145 = ORIENTED_EDGE ( 'NONE', *, *, #17, .F. ) ;
#146 = APPROVAL_PERSON_ORGANIZATION ( #221, #67, #159 ) ;
#147 = PRODUCT_RELATED_PRODUCT_CATEGORY ( 'detail', '', ( #207 ) ) ;
#148 = COORDINATED_UNIVERSAL_TIME_OFFSET ( 2, 0, .AHEAD. ) ;
#149 = EDGE_CURVE ( 'NONE', #77, #203, #118, .T. ) ;
#150 = DIRECTION ( 'NONE',  ( 0.0000000000000000000, 0.0000000000000000000, 1.000000000000000000 ) ) ;
#151 = CARTESIAN_POINT ( 'NONE',  ( -12.83453232081346200, -4.323249957056302300, 0.7013600776180383100 ) ) ;
#152 = DATE_AND_TIME ( #76, #40 ) ;
#153 = CARTESIAN_POINT ( 'NONE',  ( -3.642919299551294900E-014, 4.323249957056290800, -0.3594797895800400700 ) ) ;
#154 = DIRECTION ( 'NONE',  ( -0.0000000000000000000, -0.0000000000000000000, -1.000000000000000000 ) ) ;
#155 = DIRECTION ( 'NONE',  ( 0.0000000000000000000, 0.0000000000000000000, 1.000000000000000000 ) ) ;
#156 = VERTEX_POINT ( 'NONE', #6 ) ;
#157 = CARTESIAN_POINT ( 'NONE',  ( 8.433472585621139200, -12.85100735937249700, 1.416507488160499800 ) ) ;
#158 = DATE_TIME_ROLE ( 'creation_date' ) ;
#159 = APPROVAL_ROLE ( '' ) ;
#160 = AXIS2_PLACEMENT_3D ( 'NONE', #79, #25, #43 ) ;
#161 = ADVANCED_FACE ( 'NONE', ( #223 ), #59, .T. ) ;
#162 = FACE_OUTER_BOUND ( 'NONE', #89, .T. ) ;
#163 = CC_DESIGN_PERSON_AND_ORGANIZATION_ASSIGNMENT ( #222, #121, ( #61 ) ) ;
#164 = CC_DESIGN_APPROVAL ( #67, ( #90 ) ) ;
#165 = CYLINDRICAL_SURFACE ( 'NONE', #220, 12.69999999999999900 ) ;
#166 = CARTESIAN_POINT ( 'NONE',  ( 4.996003610813200500E-016, 2.442490654175340100E-015, 1.043431104418900000 ) ) ;
#167 = PERSON_AND_ORGANIZATION ( #227, #214 ) ;
#168 = CARTESIAN_POINT ( 'NONE',  ( 12.69999999999999900, 2.442490654175340100E-015, 3.000000000000000000 ) ) ;
#169 = AXIS2_PLACEMENT_3D ( 'NONE', #131, #191, #137 ) ;
#170 = CARTESIAN_POINT ( 'NONE',  ( -3.816391647148975600E-014, 12.85100735937248500, 1.068565886156684900 ) ) ;
#171 = PRODUCT_DEFINITION_SHAPE ( 'NONE', 'NONE',  #90 ) ;
#172 = CARTESIAN_POINT ( 'NONE',  ( 4.223913843764563600, 12.85100735937248500, 1.068565886156683100 ) ) ;
#173 = CARTESIAN_POINT ( 'NONE',  ( -12.60006359426983200, -12.85100735937249700, 2.110025711565058200 ) ) ;
#174 = PERSON_AND_ORGANIZATION_ROLE ( 'creator' ) ;
#175 = CIRCLE ( 'NONE', #110, 12.69999999999999900 ) ;
#176 =( LENGTH_UNIT ( ) NAMED_UNIT ( * ) SI_UNIT ( .MILLI., .METRE. ) );
#177 = COORDINATED_UNIVERSAL_TIME_OFFSET ( 2, 0, .AHEAD. ) ;
#178 = ORIENTED_EDGE ( 'NONE', *, *, #74, .F. ) ;
#179 = EDGE_LOOP ( 'NONE', ( #235, #112, #39, #32, #184 ) ) ;
#180 = AXIS2_PLACEMENT_3D ( 'NONE', #204, #136, #116 ) ;
#181 = ORIENTED_EDGE ( 'NONE', *, *, #199, .F. ) ;
#182 = PLANE ( 'NONE',  #180 ) ;
#183 = DIRECTION ( 'NONE',  ( 0.0000000000000000000, 0.0000000000000000000, 1.000000000000000000 ) ) ;
#184 = ORIENTED_EDGE ( 'NONE', *, *, #108, .F. ) ;
#185 = CARTESIAN_POINT ( 'NONE',  ( 12.69999999999999900, 2.442490654175340100E-015, 1.043431104418900000 ) ) ;
#186 = LOCAL_TIME ( 8, 49, 52.00000000000000000, #177 ) ;
#187 = DIRECTION ( 'NONE',  ( -0.0000000000000000000, -0.0000000000000000000, -1.000000000000000000 ) ) ;
#188 = CARTESIAN_POINT ( 'NONE',  ( -12.83453232081346100, 4.323249957056289900, 0.7013600776180350900 ) ) ;
#189 = DIRECTION ( 'NONE',  ( 1.000000000000000000, 0.0000000000000000000, 0.0000000000000000000 ) ) ;
#190 = CC_DESIGN_APPROVAL ( #133, ( #140 ) ) ;
#191 = DIRECTION ( 'NONE',  ( 1.000000000000000000, 0.0000000000000000000, 0.0000000000000000000 ) ) ;
#192 = DIRECTION ( 'NONE',  ( 1.000000000000000000, 0.0000000000000000000, 0.0000000000000000000 ) ) ;
#193 = APPROVAL_STATUS ( 'not_yet_approved' ) ;
#194 = APPROVAL_ROLE ( '' ) ;
#195 = AXIS2_PLACEMENT_3D ( 'NONE', #211, #154, #189 ) ;
#196 = APPROVAL_PERSON_ORGANIZATION ( #167, #212, #16 ) ;
#197 = DATE_AND_TIME ( #216, #111 ) ;
#198 = ADVANCED_FACE ( 'NONE', ( #50 ), #38, .T. ) ;
#199 = EDGE_CURVE ( 'NONE', #156, #20, #22, .T. ) ;
#200 = LOCAL_TIME ( 8, 49, 52.00000000000000000, #122 ) ;
#201 =( BOUNDED_SURFACE ( )  B_SPLINE_SURFACE ( 3, 3, ( 
 ( #173, #101, #47, #28 ),
 ( #151, #134, #209, #62 ),
 ( #188, #30, #65, #153 ),
 ( #119, #64, #49, #170 ) ),
 .UNSPECIFIED., .F., .F., .F. ) 
 B_SPLINE_SURFACE_WITH_KNOTS ( ( 4, 4 ),
 ( 4, 4 ),
 ( 0.0000000000000000000, 1.000000000000000000 ),
 ( 0.0000000000000000000, 1.000000000000000000 ),
 .UNSPECIFIED. ) 
 GEOMETRIC_REPRESENTATION_ITEM ( )  RATIONAL_B_SPLINE_SURFACE ( (
 ( 1.000000000000000000, 0.9977343127031818000, 0.9977343127031818000, 1.000000000000000000),
 ( 0.9908446567608560900, 0.9885997126089128800, 0.9885997126089128800, 0.9908446567608560900),
 ( 0.9908446567608560900, 0.9885997126089128800, 0.9885997126089128800, 0.9908446567608560900),
 ( 1.000000000000000000, 0.9977343127031818000, 0.9977343127031818000, 1.000000000000000000) ) ) 
 REPRESENTATION_ITEM ( '' )  SURFACE ( )  );
#202 = CC_DESIGN_PERSON_AND_ORGANIZATION_ASSIGNMENT ( #95, #91, ( #140 ) ) ;
#203 = VERTEX_POINT ( 'NONE', #168 ) ;
#204 = CARTESIAN_POINT ( 'NONE',  ( 0.0000000000000000000, 26.11199999999999800, 3.000000000000000000 ) ) ;
#205 = DIRECTION ( 'NONE',  ( 1.000000000000000000, 0.0000000000000000000, 0.0000000000000000000 ) ) ;
#206 = CARTESIAN_POINT ( 'NONE',  ( 12.83453232081343400, 4.323249957056289900, 0.7013600776180334300 ) ) ;
#207 = PRODUCT ( '110-0227E BK7 pl-cx 25.4 F150', '110-0227E BK7 pl-cx 25.4 F150', '', ( #213 ) ) ;
#208 = CARTESIAN_POINT ( 'NONE',  ( 12.83453232081343400, -4.323249957056302300, 0.7013600776180367600 ) ) ;
#209 = CARTESIAN_POINT ( 'NONE',  ( -4.302514693083175200, -4.323249957056300600, -0.3594797895800357400 ) ) ;
#210 = ORIENTED_EDGE ( 'NONE', *, *, #108, .T. ) ;
#211 = CARTESIAN_POINT ( 'NONE',  ( 4.996003610813200500E-016, 2.442490654175340100E-015, 3.000000000000000000 ) ) ;
#212 = APPROVAL ( #193, 'UNSPECIFIED' ) ;
#213 = MECHANICAL_CONTEXT ( 'NONE', #233, 'mechanical' ) ;
#214 = ORGANIZATION ( 'UNSPECIFIED', 'UNSPECIFIED', '' ) ;
#215 =( NAMED_UNIT ( * ) SI_UNIT ( $, .STERADIAN. ) SOLID_ANGLE_UNIT ( ) );
#216 = CALENDAR_DATE ( 2018, 21, 12 ) ;
#217 = CIRCLE ( 'NONE', #160, 12.69999999999999900 ) ;
#218 = ADVANCED_FACE ( 'NONE', ( #162 ), #201, .T. ) ;
#219 = CC_DESIGN_APPROVAL ( #212, ( #61 ) ) ;
#220 = AXIS2_PLACEMENT_3D ( 'NONE', #41, #80, #205 ) ;
#221 = PERSON_AND_ORGANIZATION ( #227, #214 ) ;
#222 = PERSON_AND_ORGANIZATION ( #227, #214 ) ;
#223 = FACE_OUTER_BOUND ( 'NONE', #66, .T. ) ;
#224 = CARTESIAN_POINT ( 'NONE',  ( 4.996003610813200500E-016, 2.442490654175340100E-015, 1.043431104418900000 ) ) ;
#225 = CIRCLE ( 'NONE', #143, 12.69999999999999900 ) ;
#226 = CALENDAR_DATE ( 2018, 21, 12 ) ;
#227 = PERSON ( 'UNSPECIFIED', 'UNSPECIFIED', 'UNSPECIFIED', ('UNSPECIFIED'), ('UNSPECIFIED'), ('UNSPECIFIED') ) ;
#228 = ORIENTED_EDGE ( 'NONE', *, *, #26, .T. ) ;
#229 = DIRECTION ( 'NONE',  ( 1.000000000000000000, 0.0000000000000000000, 0.0000000000000000000 ) ) ;
#230 = CARTESIAN_POINT ( 'NONE',  ( 4.302514693083124600, 4.323249957056289900, -0.3594797895800422900 ) ) ;
#231 = ORIENTED_EDGE ( 'NONE', *, *, #120, .F. ) ;
#232 = AXIS2_PLACEMENT_3D ( 'NONE', #11, #105, #229 ) ;
#233 = APPLICATION_CONTEXT ( 'configuration controlled 3d designs of mechanical parts and assemblies' ) ;
#234 = CC_DESIGN_SECURITY_CLASSIFICATION ( #61, ( #140 ) ) ;
#235 = ORIENTED_EDGE ( 'NONE', *, *, #3, .F. ) ;
ENDSEC;
END-ISO-10303-21;
