ISO-10303-21;
HEADER;
FILE_DESCRIPTION (( 'STEP AP203' ),
    '1' );
FILE_NAME ('110-0223E BK7 pl-cx 25.4 F125.STEP',
    '2018-12-21T06:50:04',
    ( '' ),
    ( '' ),
    'SwSTEP 2.0',
    'SolidWorks 2017',
    '' );
FILE_SCHEMA (( 'CONFIG_CONTROL_DESIGN' ));
ENDSEC;

DATA;
#1 = SHAPE_DEFINITION_REPRESENTATION ( #230, #196 ) ;
#2 = CARTESIAN_POINT ( 'NONE',  ( -8.623272480906887700, 4.340864004307889000, -0.006556903189761380400 ) ) ;
#3 = CARTESIAN_POINT ( 'NONE',  ( 4.208320710149289200, 12.85038486223125900, 1.286139307729403900 ) ) ;
#4 = ORIENTED_EDGE ( 'NONE', *, *, #147, .F. ) ;
#5 = ORGANIZATION ( 'UNSPECIFIED', 'UNSPECIFIED', '' ) ;
#6 = CIRCLE ( 'NONE', #110, 12.69999999999999900 ) ;
#7 = APPLICATION_PROTOCOL_DEFINITION ( 'international standard', 'config_control_design', 1994, #37 ) ;
#8 = ORIENTED_EDGE ( 'NONE', *, *, #142, .T. ) ;
#9 = PERSON_AND_ORGANIZATION ( #205, #5 ) ;
#10 = AXIS2_PLACEMENT_3D ( 'NONE', #172, #160, #176 ) ;
#11 = LOCAL_TIME ( 8, 50, 4.000000000000000000, #157 ) ;
#12 = ORIENTED_EDGE ( 'NONE', *, *, #65, .F. ) ;
#13 = APPROVAL ( #105, 'UNSPECIFIED' ) ;
#14 = DIRECTION ( 'NONE',  ( 0.0000000000000000000, 0.0000000000000000000, 1.000000000000000000 ) ) ;
#15 = CARTESIAN_POINT ( 'NONE',  ( 12.52179778021906600, -12.85038486223125000, 2.531912328784810700 ) ) ;
#16 = CARTESIAN_POINT ( 'NONE',  ( -6.938893903907228400E-015, 12.85038486223125700, 1.286139307729413000 ) ) ;
#17 = PLANE ( 'NONE',  #203 ) ;
#18 = LINE ( 'NONE', #229, #120 ) ;
#19 = LOCAL_TIME ( 8, 50, 4.000000000000000000, #189 ) ;
#20 = CYLINDRICAL_SURFACE ( 'NONE', #125, 12.69999999999999900 ) ;
#21 = APPLICATION_PROTOCOL_DEFINITION ( 'international standard', 'config_control_design', 1994, #104 ) ;
#22 = CARTESIAN_POINT ( 'NONE',  ( 4.996003610813200500E-016, 2.442490654175340100E-015, 3.200000000000000200 ) ) ;
#23 = EDGE_CURVE ( 'NONE', #42, #59, #18, .T. ) ;
#24 = DATE_AND_TIME ( #207, #121 ) ;
#25 = ORIENTED_EDGE ( 'NONE', *, *, #166, .F. ) ;
#26 = CC_DESIGN_PERSON_AND_ORGANIZATION_ASSIGNMENT ( #50, #223, ( #210 ) ) ;
#27 = COORDINATED_UNIVERSAL_TIME_OFFSET ( 2, 0, .AHEAD. ) ;
#28 = SECURITY_CLASSIFICATION ( '', '', #53 ) ;
#29 = ORIENTED_EDGE ( 'NONE', *, *, #166, .T. ) ;
#30 = CARTESIAN_POINT ( 'NONE',  ( -4.322252834680975700, 4.340864004307889900, -0.4344582582780707200 ) ) ;
#31 = ORIENTED_EDGE ( 'NONE', *, *, #88, .T. ) ;
#32 = APPROVAL_PERSON_ORGANIZATION ( #87, #80, #177 ) ;
#33 = CARTESIAN_POINT ( 'NONE',  ( -4.208320710149276800, -12.85038486223125400, 1.286139307729400100 ) ) ;
#34 = DATE_TIME_ROLE ( 'creation_date' ) ;
#35 = CIRCLE ( 'NONE', #164, 12.69999999999999900 ) ;
#36 = DIRECTION ( 'NONE',  ( -0.0000000000000000000, -0.0000000000000000000, -1.000000000000000000 ) ) ;
#37 = APPLICATION_CONTEXT ( 'configuration controlled 3d designs of mechanical parts and assemblies' ) ;
#38 = VERTEX_POINT ( 'NONE', #169 ) ;
#39 = APPROVAL_PERSON_ORGANIZATION ( #83, #208, #84 ) ;
#40 = CC_DESIGN_APPROVAL ( #208, ( #28 ) ) ;
#41 = AXIS2_PLACEMENT_3D ( 'NONE', #91, #168, #73 ) ;
#42 = VERTEX_POINT ( 'NONE', #131 ) ;
#43 = CARTESIAN_POINT ( 'NONE',  ( 1.515885794253308200E-014, -12.69999999999999200, 1.255917086113447700 ) ) ;
#44 = APPROVAL_DATE_TIME ( #140, #13 ) ;
#45 = CIRCLE ( 'NONE', #115, 64.84000000000000300 ) ;
#46 = EDGE_CURVE ( 'NONE', #202, #52, #67, .T. ) ;
#47 = CARTESIAN_POINT ( 'NONE',  ( 4.322252834680987200, -4.340864004307884500, -0.4344582582780797100 ) ) ;
#48 = CARTESIAN_POINT ( 'NONE',  ( -12.86080117903700400, 4.340864004307887200, 0.8450416521350760900 ) ) ;
#49 = DIRECTION ( 'NONE',  ( -0.0000000000000000000, -0.0000000000000000000, -1.000000000000000000 ) ) ;
#50 = PERSON_AND_ORGANIZATION ( #205, #5 ) ;
#51 = CARTESIAN_POINT ( 'NONE',  ( 9.467249135539450200E-015, 12.69999999999999600, 1.255917086113447700 ) ) ;
#52 = VERTEX_POINT ( 'NONE', #43 ) ;
#53 = SECURITY_CLASSIFICATION_LEVEL ( 'unclassified' ) ;
#54 = PERSON_AND_ORGANIZATION_ROLE ( 'creator' ) ;
#55 = DATE_AND_TIME ( #129, #19 ) ;
#56 = EDGE_CURVE ( 'NONE', #42, #197, #161, .T. ) ;
#57 = ADVANCED_FACE ( 'NONE', ( #111 ), #148, .T. ) ;
#58 = DIRECTION ( 'NONE',  ( 1.000000000000000000, 0.0000000000000000000, 0.0000000000000000000 ) ) ;
#59 = VERTEX_POINT ( 'NONE', #92 ) ;
#60 = CC_DESIGN_PERSON_AND_ORGANIZATION_ASSIGNMENT ( #192, #119, ( #127 ) ) ;
#61 = CARTESIAN_POINT ( 'NONE',  ( 4.322252834680983600, 4.340864004307891700, -0.4344582582780803800 ) ) ;
#62 = DIRECTION ( 'NONE',  ( 2.240790868895131200E-016, -1.000000000000000000, -4.280625480510319500E-016 ) ) ;
#63 = DIRECTION ( 'NONE',  ( 1.000000000000000000, 0.0000000000000000000, 0.0000000000000000000 ) ) ;
#64 = CARTESIAN_POINT ( 'NONE',  ( 4.996003610813200500E-016, 2.442490654175340100E-015, 1.255917086113450100 ) ) ;
#65 = EDGE_CURVE ( 'NONE', #202, #38, #227, .T. ) ;
#66 = ORIENTED_EDGE ( 'NONE', *, *, #23, .F. ) ;
#67 = CIRCLE ( 'NONE', #107, 12.69999999999999900 ) ;
#68 = PERSON_AND_ORGANIZATION ( #205, #5 ) ;
#69 = VECTOR ( 'NONE', #188, 1000.000000000000000 ) ;
#70 = PRODUCT_DEFINITION ( 'UNKNOWN', '', #210, #195 ) ;
#71 = CALENDAR_DATE ( 2018, 21, 12 ) ;
#72 = CARTESIAN_POINT ( 'NONE',  ( 4.996003610813200500E-016, 2.442490654175340100E-015, 1.255917086113450100 ) ) ;
#73 = DIRECTION ( 'NONE',  ( 1.000000000000000000, 0.0000000000000000000, 0.0000000000000000000 ) ) ;
#74 = CARTESIAN_POINT ( 'NONE',  ( 12.86080117903702400, 4.340864004307893400, 0.8450416521350709900 ) ) ;
#75 = CARTESIAN_POINT ( 'NONE',  ( 8.623272480906903700, -4.340864004307883700, -0.006556903189768427700 ) ) ;
#76 = CARTESIAN_POINT ( 'NONE',  ( -8.395967926605420600, 12.85038486223125500, 1.702761426655500900 ) ) ;
#77 = EDGE_LOOP ( 'NONE', ( #232, #29, #106 ) ) ;
#78 = DIRECTION ( 'NONE',  ( 1.000000000000000000, 0.0000000000000000000, 0.0000000000000000000 ) ) ;
#79 = DIRECTION ( 'NONE',  ( 1.000000000000000000, 0.0000000000000000000, 0.0000000000000000000 ) ) ;
#80 = APPROVAL ( #163, 'UNSPECIFIED' ) ;
#81 = PERSON_AND_ORGANIZATION_ROLE ( 'design_supplier' ) ;
#82 = ORIENTED_EDGE ( 'NONE', *, *, #46, .T. ) ;
#83 = PERSON_AND_ORGANIZATION ( #205, #5 ) ;
#84 = APPROVAL_ROLE ( '' ) ;
#85 = ORIENTED_EDGE ( 'NONE', *, *, #46, .F. ) ;
#86 = ORIENTED_EDGE ( 'NONE', *, *, #147, .T. ) ;
#87 = PERSON_AND_ORGANIZATION ( #205, #5 ) ;
#88 = EDGE_CURVE ( 'NONE', #59, #38, #145, .T. ) ;
#89 = ADVANCED_FACE ( 'NONE', ( #123 ), #206, .T. ) ;
#90 = APPROVAL_PERSON_ORGANIZATION ( #9, #13, #122 ) ;
#91 = CARTESIAN_POINT ( 'NONE',  ( 4.996003610813200500E-016, 2.442490654175340100E-015, 1.255917086113450100 ) ) ;
#92 = CARTESIAN_POINT ( 'NONE',  ( -12.69999999999999900, 3.997792089092478900E-015, 3.200000000000000200 ) ) ;
#93 = ORIENTED_EDGE ( 'NONE', *, *, #222, .T. ) ;
#94 = DIRECTION ( 'NONE',  ( 0.0000000000000000000, 0.0000000000000000000, 1.000000000000000000 ) ) ;
#95 = AXIS2_PLACEMENT_3D ( 'NONE', #149, #94, #58 ) ;
#96 = COORDINATED_UNIVERSAL_TIME_OFFSET ( 2, 0, .AHEAD. ) ;
#97 = DIRECTION ( 'NONE',  ( 0.0000000000000000000, 0.0000000000000000000, 1.000000000000000000 ) ) ;
#98 = CARTESIAN_POINT ( 'NONE',  ( 4.208320710149295400, -12.85038486223125000, 1.286139307729403900 ) ) ;
#99 = CARTESIAN_POINT ( 'NONE',  ( -8.395967926605413500, -12.85038486223125400, 1.702761426655486900 ) ) ;
#100 = DIRECTION ( 'NONE',  ( 1.000000000000000000, 8.881784197001252300E-016, 0.0000000000000000000 ) ) ;
#101 = CARTESIAN_POINT ( 'NONE',  ( -8.623272480906882400, -4.340864004307887200, -0.006556903189774390900 ) ) ;
#102 = CARTESIAN_POINT ( 'NONE',  ( -4.322252834680972100, -4.340864004307886300, -0.4344582582780835400 ) ) ;
#103 = CARTESIAN_POINT ( 'NONE',  ( 12.86080117903702600, -4.340864004307882800, 0.8450416521350714300 ) ) ;
#104 = APPLICATION_CONTEXT ( 'configuration controlled 3d designs of mechanical parts and assemblies' ) ;
#105 = APPROVAL_STATUS ( 'not_yet_approved' ) ;
#106 = ORIENTED_EDGE ( 'NONE', *, *, #56, .T. ) ;
#107 = AXIS2_PLACEMENT_3D ( 'NONE', #231, #130, #209 ) ;
#108 = CALENDAR_DATE ( 2018, 21, 12 ) ;
#109 = AXIS2_PLACEMENT_3D ( 'NONE', #114, #49, #78 ) ;
#110 = AXIS2_PLACEMENT_3D ( 'NONE', #190, #139, #100 ) ;
#111 = FACE_OUTER_BOUND ( 'NONE', #113, .T. ) ;
#112 = CARTESIAN_POINT ( 'NONE',  ( 12.69999999999999900, 2.442490654175340100E-015, 1.255917086113450100 ) ) ;
#113 = EDGE_LOOP ( 'NONE', ( #66, #25, #85, #178, #93 ) ) ;
#114 = CARTESIAN_POINT ( 'NONE',  ( 4.996003610813200500E-016, 2.442490654175340100E-015, 3.200000000000000200 ) ) ;
#115 = AXIS2_PLACEMENT_3D ( 'NONE', #215, #152, #62 ) ;
#116 = DIRECTION ( 'NONE',  ( 1.000000000000000000, 0.0000000000000000000, 0.0000000000000000000 ) ) ;
#117 = COORDINATED_UNIVERSAL_TIME_OFFSET ( 2, 0, .AHEAD. ) ;
#118 =( NAMED_UNIT ( * ) PLANE_ANGLE_UNIT ( ) SI_UNIT ( $, .RADIAN. ) );
#119 = PERSON_AND_ORGANIZATION_ROLE ( 'design_owner' ) ;
#120 = VECTOR ( 'NONE', #167, 1000.000000000000000 ) ;
#121 = LOCAL_TIME ( 8, 50, 4.000000000000000000, #96 ) ;
#122 = APPROVAL_ROLE ( '' ) ;
#123 = FACE_OUTER_BOUND ( 'NONE', #126, .T. ) ;
#124 = CC_DESIGN_PERSON_AND_ORGANIZATION_ASSIGNMENT ( #224, #81, ( #210 ) ) ;
#125 = AXIS2_PLACEMENT_3D ( 'NONE', #72, #97, #63 ) ;
#126 = EDGE_LOOP ( 'NONE', ( #82, #8, #86 ) ) ;
#127 = PRODUCT ( '110-0223E BK7 pl-cx 25.4 F125', '110-0223E BK7 pl-cx 25.4 F125', '', ( #218 ) ) ;
#128 = ADVANCED_FACE ( 'NONE', ( #180 ), #20, .T. ) ;
#129 = CALENDAR_DATE ( 2018, 21, 12 ) ;
#130 = DIRECTION ( 'NONE',  ( -0.0000000000000000000, -0.0000000000000000000, -1.000000000000000000 ) ) ;
#131 = CARTESIAN_POINT ( 'NONE',  ( -12.69999999999999900, 3.997792089092478900E-015, 1.255917086113450100 ) ) ;
#132 = PERSON_AND_ORGANIZATION ( #205, #5 ) ;
#133 = CARTESIAN_POINT ( 'NONE',  ( -12.86080117903700100, -4.340864004307889000, 0.8450416521350631000 ) ) ;
#134 = CARTESIAN_POINT ( 'NONE',  ( 9.427698501669703000E-015, 12.85038486223125700, 1.286139307729403200 ) ) ;
#135 = DIRECTION ( 'NONE',  ( 1.000000000000000000, 0.0000000000000000000, -0.0000000000000000000 ) ) ;
#136 = ORIENTED_EDGE ( 'NONE', *, *, #88, .F. ) ;
#137 = APPROVAL_DATE_TIME ( #186, #208 ) ;
#138 = CARTESIAN_POINT ( 'NONE',  ( 8.623272480906901900, 4.340864004307892500, -0.006556903189768968100 ) ) ;
#139 = DIRECTION ( 'NONE',  ( -0.0000000000000000000, -0.0000000000000000000, -1.000000000000000000 ) ) ;
#140 = DATE_AND_TIME ( #108, #11 ) ;
#141 = APPROVAL_STATUS ( 'not_yet_approved' ) ;
#142 = EDGE_CURVE ( 'NONE', #52, #197, #45, .T. ) ;
#143 =( NAMED_UNIT ( * ) SI_UNIT ( $, .STERADIAN. ) SOLID_ANGLE_UNIT ( ) );
#144 = CALENDAR_DATE ( 2018, 21, 12 ) ;
#145 = CIRCLE ( 'NONE', #109, 12.69999999999999900 ) ;
#146 = UNCERTAINTY_MEASURE_WITH_UNIT (LENGTH_MEASURE( 1.000000000000000100E-005 ), #221, 'distance_accuracy_value', 'NONE');
#147 = EDGE_CURVE ( 'NONE', #197, #202, #6, .T. ) ;
#148 = CYLINDRICAL_SURFACE ( 'NONE', #95, 12.69999999999999900 ) ;
#149 = CARTESIAN_POINT ( 'NONE',  ( 4.996003610813200500E-016, 2.442490654175340100E-015, 1.255917086113450100 ) ) ;
#150 = MANIFOLD_SOLID_BREP ( 'Imported1', #185 ) ;
#151 = CC_DESIGN_DATE_AND_TIME_ASSIGNMENT ( #55, #200, ( #28 ) ) ;
#152 = DIRECTION ( 'NONE',  ( 1.000000000000000000, 2.240790868895130200E-016, 1.936499352473500100E-016 ) ) ;
#153 = CARTESIAN_POINT ( 'NONE',  ( -3.469446951953614200E-015, -4.340864004307885400, -0.4344582582780838200 ) ) ;
#154 = CARTESIAN_POINT ( 'NONE',  ( 8.395967926605434800, -12.85038486223125000, 1.702761426655493100 ) ) ;
#155 = CARTESIAN_POINT ( 'NONE',  ( 0.0000000000000000000, 26.11199999999999800, 3.200000000000000200 ) ) ;
#156 = CC_DESIGN_APPROVAL ( #13, ( #210 ) ) ;
#157 = COORDINATED_UNIVERSAL_TIME_OFFSET ( 2, 0, .AHEAD. ) ;
#158 = CIRCLE ( 'NONE', #187, 12.69999999999999900 ) ;
#159 = CC_DESIGN_APPROVAL ( #80, ( #70 ) ) ;
#160 = DIRECTION ( 'NONE',  ( 0.0000000000000000000, 0.0000000000000000000, 1.000000000000000000 ) ) ;
#161 = CIRCLE ( 'NONE', #41, 12.69999999999999900 ) ;
#162 = CARTESIAN_POINT ( 'NONE',  ( 12.69999999999999900, 2.442490654175340100E-015, 1.255917086113450100 ) ) ;
#163 = APPROVAL_STATUS ( 'not_yet_approved' ) ;
#164 = AXIS2_PLACEMENT_3D ( 'NONE', #64, #191, #116 ) ;
#165 = FACE_OUTER_BOUND ( 'NONE', #220, .T. ) ;
#166 = EDGE_CURVE ( 'NONE', #52, #42, #35, .T. ) ;
#167 = DIRECTION ( 'NONE',  ( 0.0000000000000000000, 0.0000000000000000000, 1.000000000000000000 ) ) ;
#168 = DIRECTION ( 'NONE',  ( -0.0000000000000000000, -0.0000000000000000000, -1.000000000000000000 ) ) ;
#169 = CARTESIAN_POINT ( 'NONE',  ( 12.69999999999999900, 2.442490654175340100E-015, 3.200000000000000200 ) ) ;
#170 =( BOUNDED_SURFACE ( )  B_SPLINE_SURFACE ( 3, 3, ( 
 ( #216, #99, #33, #213 ),
 ( #133, #101, #102, #153 ),
 ( #48, #2, #30, #235 ),
 ( #193, #76, #194, #16 ) ),
 .UNSPECIFIED., .F., .F., .F. ) 
 B_SPLINE_SURFACE_WITH_KNOTS ( ( 4, 4 ),
 ( 4, 4 ),
 ( 0.0000000000000000000, 1.000000000000000000 ),
 ( 0.0000000000000000000, 1.000000000000000000 ),
 .UNSPECIFIED. ) 
 GEOMETRIC_REPRESENTATION_ITEM ( )  RATIONAL_B_SPLINE_SURFACE ( (
 ( 1.000000000000000000, 0.9967249812744739500, 0.9967249812744739500, 1.000000000000000000),
 ( 0.9867762769100411100, 0.9835445661252558700, 0.9835445661252558700, 0.9867762769100411100),
 ( 0.9867762769100411100, 0.9835445661252558700, 0.9835445661252558700, 0.9867762769100411100),
 ( 1.000000000000000000, 0.9967249812744739500, 0.9967249812744739500, 1.000000000000000000) ) ) 
 REPRESENTATION_ITEM ( '' )  SURFACE ( )  );
#171 = CARTESIAN_POINT ( 'NONE',  ( 1.361309145741827000E-014, -4.340864004307885400, -0.4344582582780805400 ) ) ;
#172 = CARTESIAN_POINT ( 'NONE',  ( 0.0000000000000000000, 0.0000000000000000000, 0.0000000000000000000 ) ) ;
#173 = FACE_OUTER_BOUND ( 'NONE', #77, .T. ) ;
#174 = CARTESIAN_POINT ( 'NONE',  ( 12.52179778021906200, 12.85038486223125900, 2.531912328784811100 ) ) ;
#175 = EDGE_LOOP ( 'NONE', ( #225, #228, #31, #12, #4 ) ) ;
#176 = DIRECTION ( 'NONE',  ( 1.000000000000000000, 0.0000000000000000000, 0.0000000000000000000 ) ) ;
#177 = APPROVAL_ROLE ( '' ) ;
#178 = ORIENTED_EDGE ( 'NONE', *, *, #65, .T. ) ;
#179 = APPROVAL_DATE_TIME ( #183, #80 ) ;
#180 = FACE_OUTER_BOUND ( 'NONE', #175, .T. ) ;
#181 = ADVANCED_FACE ( 'NONE', ( #173 ), #170, .T. ) ;
#182 = CC_DESIGN_PERSON_AND_ORGANIZATION_ASSIGNMENT ( #68, #54, ( #70 ) ) ;
#183 = DATE_AND_TIME ( #144, #198 ) ;
#184 = ADVANCED_FACE ( 'NONE', ( #165 ), #17, .T. ) ;
#185 = CLOSED_SHELL ( 'NONE', ( #89, #128, #181, #57, #184 ) ) ;
#186 = DATE_AND_TIME ( #71, #233 ) ;
#187 = AXIS2_PLACEMENT_3D ( 'NONE', #22, #36, #79 ) ;
#188 = DIRECTION ( 'NONE',  ( 0.0000000000000000000, 0.0000000000000000000, 1.000000000000000000 ) ) ;
#189 = COORDINATED_UNIVERSAL_TIME_OFFSET ( 2, 0, .AHEAD. ) ;
#190 = CARTESIAN_POINT ( 'NONE',  ( 4.996003610813200500E-016, 2.442490654175340100E-015, 1.255917086113450100 ) ) ;
#191 = DIRECTION ( 'NONE',  ( -0.0000000000000000000, -0.0000000000000000000, -1.000000000000000000 ) ) ;
#192 = PERSON_AND_ORGANIZATION ( #205, #5 ) ;
#193 = CARTESIAN_POINT ( 'NONE',  ( -12.52179778021904600, 12.85038486223125400, 2.531912328784816000 ) ) ;
#194 = CARTESIAN_POINT ( 'NONE',  ( -4.208320710149281200, 12.85038486223125500, 1.286139307729413200 ) ) ;
#195 = DESIGN_CONTEXT ( 'detailed design', #104, 'design' ) ;
#196 = ADVANCED_BREP_SHAPE_REPRESENTATION ( '110-0223E BK7 pl-cx 25.4 F125', ( #150, #10 ), #226 ) ;
#197 = VERTEX_POINT ( 'NONE', #51 ) ;
#198 = LOCAL_TIME ( 8, 50, 4.000000000000000000, #117 ) ;
#199 = CC_DESIGN_DATE_AND_TIME_ASSIGNMENT ( #24, #34, ( #70 ) ) ;
#200 = DATE_TIME_ROLE ( 'classification_date' ) ;
#201 = PERSON_AND_ORGANIZATION_ROLE ( 'classification_officer' ) ;
#202 = VERTEX_POINT ( 'NONE', #162 ) ;
#203 = AXIS2_PLACEMENT_3D ( 'NONE', #155, #14, #135 ) ;
#204 = PRODUCT_RELATED_PRODUCT_CATEGORY ( 'detail', '', ( #127 ) ) ;
#205 = PERSON ( 'UNSPECIFIED', 'UNSPECIFIED', 'UNSPECIFIED', ('UNSPECIFIED'), ('UNSPECIFIED'), ('UNSPECIFIED') ) ;
#206 =( BOUNDED_SURFACE ( )  B_SPLINE_SURFACE ( 3, 3, ( 
 ( #211, #98, #154, #15 ),
 ( #171, #47, #75, #103 ),
 ( #217, #61, #138, #74 ),
 ( #134, #3, #234, #174 ) ),
 .UNSPECIFIED., .F., .F., .F. ) 
 B_SPLINE_SURFACE_WITH_KNOTS ( ( 4, 4 ),
 ( 4, 4 ),
 ( 0.0000000000000000000, 1.000000000000000000 ),
 ( 0.0000000000000000000, 1.000000000000000000 ),
 .UNSPECIFIED. ) 
 GEOMETRIC_REPRESENTATION_ITEM ( )  RATIONAL_B_SPLINE_SURFACE ( (
 ( 1.000000000000000000, 0.9967249812744739500, 0.9967249812744739500, 1.000000000000000000),
 ( 0.9867762769100411100, 0.9835445661252558700, 0.9835445661252558700, 0.9867762769100411100),
 ( 0.9867762769100411100, 0.9835445661252558700, 0.9835445661252558700, 0.9867762769100411100),
 ( 1.000000000000000000, 0.9967249812744739500, 0.9967249812744739500, 1.000000000000000000) ) ) 
 REPRESENTATION_ITEM ( '' )  SURFACE ( )  );
#207 = CALENDAR_DATE ( 2018, 21, 12 ) ;
#208 = APPROVAL ( #141, 'UNSPECIFIED' ) ;
#209 = DIRECTION ( 'NONE',  ( 1.000000000000000000, 0.0000000000000000000, 0.0000000000000000000 ) ) ;
#210 = PRODUCT_DEFINITION_FORMATION_WITH_SPECIFIED_SOURCE ( 'ANY', '', #127, .NOT_KNOWN. ) ;
#211 = CARTESIAN_POINT ( 'NONE',  ( 1.518670351388490800E-014, -12.85038486223125200, 1.286139307729403200 ) ) ;
#212 = ORIENTED_EDGE ( 'NONE', *, *, #222, .F. ) ;
#213 = CARTESIAN_POINT ( 'NONE',  ( -1.734723475976807100E-015, -12.85038486223125200, 1.286139307729399700 ) ) ;
#214 = CC_DESIGN_SECURITY_CLASSIFICATION ( #28, ( #210 ) ) ;
#215 = CARTESIAN_POINT ( 'NONE',  ( 0.0000000000000000000, 0.0000000000000000000, 64.84000000000000300 ) ) ;
#216 = CARTESIAN_POINT ( 'NONE',  ( -12.52179778021903900, -12.85038486223125500, 2.531912328784802200 ) ) ;
#217 = CARTESIAN_POINT ( 'NONE',  ( 1.166769777262453300E-014, 4.340864004307890800, -0.4344582582780812100 ) ) ;
#218 = MECHANICAL_CONTEXT ( 'NONE', #37, 'mechanical' ) ;
#219 = CC_DESIGN_PERSON_AND_ORGANIZATION_ASSIGNMENT ( #132, #201, ( #28 ) ) ;
#220 = EDGE_LOOP ( 'NONE', ( #212, #136 ) ) ;
#221 =( LENGTH_UNIT ( ) NAMED_UNIT ( * ) SI_UNIT ( .MILLI., .METRE. ) );
#222 = EDGE_CURVE ( 'NONE', #38, #59, #158, .T. ) ;
#223 = PERSON_AND_ORGANIZATION_ROLE ( 'creator' ) ;
#224 = PERSON_AND_ORGANIZATION ( #205, #5 ) ;
#225 = ORIENTED_EDGE ( 'NONE', *, *, #56, .F. ) ;
#226 =( GEOMETRIC_REPRESENTATION_CONTEXT ( 3 ) GLOBAL_UNCERTAINTY_ASSIGNED_CONTEXT ( ( #146 ) ) GLOBAL_UNIT_ASSIGNED_CONTEXT ( ( #221, #118, #143 ) ) REPRESENTATION_CONTEXT ( 'NONE', 'WORKASPACE' ) );
#227 = LINE ( 'NONE', #112, #69 ) ;
#228 = ORIENTED_EDGE ( 'NONE', *, *, #23, .T. ) ;
#229 = CARTESIAN_POINT ( 'NONE',  ( -12.69999999999999900, 3.997792089092478900E-015, 1.255917086113450100 ) ) ;
#230 = PRODUCT_DEFINITION_SHAPE ( 'NONE', 'NONE',  #70 ) ;
#231 = CARTESIAN_POINT ( 'NONE',  ( 4.996003610813200500E-016, 2.442490654175340100E-015, 1.255917086113450100 ) ) ;
#232 = ORIENTED_EDGE ( 'NONE', *, *, #142, .F. ) ;
#233 = LOCAL_TIME ( 8, 50, 4.000000000000000000, #27 ) ;
#234 = CARTESIAN_POINT ( 'NONE',  ( 8.395967926605431200, 12.85038486223125900, 1.702761426655493600 ) ) ;
#235 = CARTESIAN_POINT ( 'NONE',  ( -8.673617379884035500E-015, 4.340864004307890800, -0.4344582582780712200 ) ) ;
ENDSEC;
END-ISO-10303-21;
