ISO-10303-21;
HEADER;
FILE_DESCRIPTION (( 'STEP AP203' ),
    '1' );
FILE_NAME ('110-0219E BK7 pl-cx 25.4 F100.STEP',
    '2018-12-21T06:50:16',
    ( '' ),
    ( '' ),
    'SwSTEP 2.0',
    'SolidWorks 2017',
    '' );
FILE_SCHEMA (( 'CONFIG_CONTROL_DESIGN' ));
ENDSEC;

DATA;
#1 = AXIS2_PLACEMENT_3D ( 'NONE', #70, #71, #39 ) ;
#2 = CARTESIAN_POINT ( 'NONE',  ( 4.996003610813200500E-016, 2.442490654175340100E-015, 1.578779096148400100 ) ) ;
#3 = FACE_OUTER_BOUND ( 'NONE', #91, .T. ) ;
#4 = CARTESIAN_POINT ( 'NONE',  ( 4.996003610813200500E-016, 2.442490654175340100E-015, 1.578779096148400100 ) ) ;
#5 = APPROVAL ( #10, 'UNSPECIFIED' ) ;
#6 = CARTESIAN_POINT ( 'NONE',  ( -4.359379427258296900, 4.373960111673919300, -0.5503346152573038700 ) ) ;
#7 = CARTESIAN_POINT ( 'NONE',  ( 0.0000000000000000000, 0.0000000000000000000, 0.0000000000000000000 ) ) ;
#8 = DIRECTION ( 'NONE',  ( 0.0000000000000000000, 0.0000000000000000000, 1.000000000000000000 ) ) ;
#9 = PERSON_AND_ORGANIZATION ( #148, #114 ) ;
#10 = APPROVAL_STATUS ( 'not_yet_approved' ) ;
#11 = APPLICATION_CONTEXT ( 'configuration controlled 3d designs of mechanical parts and assemblies' ) ;
#12 = CLOSED_SHELL ( 'NONE', ( #17, #27, #175, #103, #195 ) ) ;
#13 = EDGE_CURVE ( 'NONE', #219, #123, #76, .T. ) ;
#14 = DATE_TIME_ROLE ( 'classification_date' ) ;
#15 = PERSON_AND_ORGANIZATION_ROLE ( 'classification_officer' ) ;
#16 = CALENDAR_DATE ( 2018, 21, 12 ) ;
#17 = ADVANCED_FACE ( 'NONE', ( #163 ), #160, .T. ) ;
#18 = CC_DESIGN_PERSON_AND_ORGANIZATION_ASSIGNMENT ( #199, #84, ( #132 ) ) ;
#19 = PERSON_AND_ORGANIZATION ( #148, #114 ) ;
#20 = ORIENTED_EDGE ( 'NONE', *, *, #33, .T. ) ;
#21 = DIRECTION ( 'NONE',  ( 1.000000000000000000, 0.0000000000000000000, 0.0000000000000000000 ) ) ;
#22 = CARTESIAN_POINT ( 'NONE',  ( 4.179164687769884700, -12.84922284095831000, 1.616697895726345400 ) ) ;
#23 = AXIS2_PLACEMENT_3D ( 'NONE', #4, #54, #38 ) ;
#24 = CARTESIAN_POINT ( 'NONE',  ( -8.326023184197934400, 12.84922284095833300, 2.135332736539831800 ) ) ;
#25 = CARTESIAN_POINT ( 'NONE',  ( 4.996003610813200500E-016, 2.442490654175340100E-015, 3.500000000000000000 ) ) ;
#26 = CARTESIAN_POINT ( 'NONE',  ( -1.575797598172527200E-014, -12.69999999999998200, 1.578779096148398500 ) ) ;
#27 = ADVANCED_FACE ( 'NONE', ( #86 ), #37, .T. ) ;
#28 = CYLINDRICAL_SURFACE ( 'NONE', #83, 12.69999999999999900 ) ;
#29 = VERTEX_POINT ( 'NONE', #35 ) ;
#30 = APPROVAL ( #82, 'UNSPECIFIED' ) ;
#31 = AXIS2_PLACEMENT_3D ( 'NONE', #198, #78, #56 ) ;
#32 = ORIENTED_EDGE ( 'NONE', *, *, #33, .F. ) ;
#33 = EDGE_CURVE ( 'NONE', #29, #219, #215, .T. ) ;
#34 = CARTESIAN_POINT ( 'NONE',  ( 12.91016276762460500, -4.373960111673898900, 1.064299744133208300 ) ) ;
#35 = CARTESIAN_POINT ( 'NONE',  ( -12.69999999999999900, 3.997792089092478900E-015, 1.578779096148400100 ) ) ;
#36 = CC_DESIGN_PERSON_AND_ORGANIZATION_ASSIGNMENT ( #136, #97, ( #149 ) ) ;
#37 = CYLINDRICAL_SURFACE ( 'NONE', #228, 12.69999999999999900 ) ;
#38 = DIRECTION ( 'NONE',  ( 1.000000000000000000, 0.0000000000000000000, 0.0000000000000000000 ) ) ;
#39 = DIRECTION ( 'NONE',  ( 1.000000000000000000, 0.0000000000000000000, 0.0000000000000000000 ) ) ;
#40 = PERSON_AND_ORGANIZATION ( #148, #114 ) ;
#41 = DIRECTION ( 'NONE',  ( -0.0000000000000000000, -0.0000000000000000000, -1.000000000000000000 ) ) ;
#42 =( LENGTH_UNIT ( ) NAMED_UNIT ( * ) SI_UNIT ( .MILLI., .METRE. ) );
#43 = AXIS2_PLACEMENT_3D ( 'NONE', #227, #134, #203 ) ;
#44 = DIRECTION ( 'NONE',  ( 0.0000000000000000000, 0.0000000000000000000, 1.000000000000000000 ) ) ;
#45 = LOCAL_TIME ( 8, 50, 16.00000000000000000, #194 ) ;
#46 = CARTESIAN_POINT ( 'NONE',  ( -12.37646257961800200, 12.84922284095833700, 3.164584013698124000 ) ) ;
#47 = CALENDAR_DATE ( 2018, 21, 12 ) ;
#48 = FACE_OUTER_BOUND ( 'NONE', #73, .T. ) ;
#49 = VECTOR ( 'NONE', #8, 1000.000000000000000 ) ;
#50 = ADVANCED_BREP_SHAPE_REPRESENTATION ( '110-0219E BK7 pl-cx 25.4 F100', ( #60, #111 ), #117 ) ;
#51 = CC_DESIGN_PERSON_AND_ORGANIZATION_ASSIGNMENT ( #19, #209, ( #217 ) ) ;
#52 = DATE_AND_TIME ( #153, #143 ) ;
#53 = ORIENTED_EDGE ( 'NONE', *, *, #176, .F. ) ;
#54 = DIRECTION ( 'NONE',  ( -0.0000000000000000000, -0.0000000000000000000, -1.000000000000000000 ) ) ;
#55 = VERTEX_POINT ( 'NONE', #181 ) ;
#56 = DIRECTION ( 'NONE',  ( 1.000000000000000000, 0.0000000000000000000, 0.0000000000000000000 ) ) ;
#57 = AXIS2_PLACEMENT_3D ( 'NONE', #25, #75, #131 ) ;
#58 = PLANE ( 'NONE',  #43 ) ;
#59 = LINE ( 'NONE', #94, #177 ) ;
#60 = MANIFOLD_SOLID_BREP ( 'Imported1', #12 ) ;
#61 = CARTESIAN_POINT ( 'NONE',  ( -4.179164687769917600, 12.84922284095833200, 1.616697895726343800 ) ) ;
#62 = CARTESIAN_POINT ( 'NONE',  ( -8.685059549408775200, -4.373960111673893500, -0.009335103580209369200 ) ) ;
#63 = PERSON_AND_ORGANIZATION ( #148, #114 ) ;
#64 = EDGE_CURVE ( 'NONE', #65, #55, #120, .T. ) ;
#65 = VERTEX_POINT ( 'NONE', #220 ) ;
#66 = EDGE_CURVE ( 'NONE', #123, #162, #211, .T. ) ;
#67 = LOCAL_TIME ( 8, 50, 16.00000000000000000, #179 ) ;
#68 = ORIENTED_EDGE ( 'NONE', *, *, #66, .F. ) ;
#69 = CARTESIAN_POINT ( 'NONE',  ( 12.37646257961798000, 12.84922284095833000, 3.164584013698116000 ) ) ;
#70 = CARTESIAN_POINT ( 'NONE',  ( 4.996003610813200500E-016, 2.442490654175340100E-015, 1.578779096148400100 ) ) ;
#71 = DIRECTION ( 'NONE',  ( -0.0000000000000000000, -0.0000000000000000000, -1.000000000000000000 ) ) ;
#72 = COORDINATED_UNIVERSAL_TIME_OFFSET ( 2, 0, .AHEAD. ) ;
#73 = EDGE_LOOP ( 'NONE', ( #53, #106, #68, #115, #108 ) ) ;
#74 = CARTESIAN_POINT ( 'NONE',  ( -2.775557561562891400E-014, -12.84922284095831000, 1.616697895726340500 ) ) ;
#75 = DIRECTION ( 'NONE',  ( -0.0000000000000000000, -0.0000000000000000000, -1.000000000000000000 ) ) ;
#76 = CIRCLE ( 'NONE', #23, 12.69999999999999900 ) ;
#77 = CARTESIAN_POINT ( 'NONE',  ( -8.643190652142329900E-015, 12.70000000000000600, 1.578779096148398500 ) ) ;
#78 = DIRECTION ( 'NONE',  ( -0.0000000000000000000, -0.0000000000000000000, -1.000000000000000000 ) ) ;
#79 = AXIS2_PLACEMENT_3D ( 'NONE', #116, #133, #154 ) ;
#80 = CARTESIAN_POINT ( 'NONE',  ( -2.602085213965211000E-014, 4.373960111673919300, -0.5503346152573074200 ) ) ;
#81 = ORIENTED_EDGE ( 'NONE', *, *, #197, .F. ) ;
#82 = APPROVAL_STATUS ( 'not_yet_approved' ) ;
#83 = AXIS2_PLACEMENT_3D ( 'NONE', #146, #167, #129 ) ;
#84 = PERSON_AND_ORGANIZATION_ROLE ( 'creator' ) ;
#85 = APPROVAL_PERSON_ORGANIZATION ( #9, #5, #158 ) ;
#86 = FACE_OUTER_BOUND ( 'NONE', #105, .T. ) ;
#87 = AXIS2_PLACEMENT_3D ( 'NONE', #151, #41, #152 ) ;
#88 = CALENDAR_DATE ( 2018, 21, 12 ) ;
#89 = CC_DESIGN_DATE_AND_TIME_ASSIGNMENT ( #52, #140, ( #132 ) ) ;
#90 = CARTESIAN_POINT ( 'NONE',  ( 4.359379427258258700, -4.373960111673896200, -0.5503346152573060900 ) ) ;
#91 = EDGE_LOOP ( 'NONE', ( #170, #183, #20 ) ) ;
#92 = CARTESIAN_POINT ( 'NONE',  ( 4.359379427258260400, 4.373960111673919300, -0.5503346152573017600 ) ) ;
#93 = CARTESIAN_POINT ( 'NONE',  ( 1.421085471520200100E-014, 2.486899575160350000E-014, 51.86999999999999700 ) ) ;
#94 = CARTESIAN_POINT ( 'NONE',  ( 12.69999999999999900, 2.442490654175340100E-015, 1.578779096148400100 ) ) ;
#95 = CARTESIAN_POINT ( 'NONE',  ( -8.685059549408773400, 4.373960111673921100, -0.009335103580205032400 ) ) ;
#96 = CARTESIAN_POINT ( 'NONE',  ( -12.69999999999999900, 3.997792089092478900E-015, 1.578779096148400100 ) ) ;
#97 = PERSON_AND_ORGANIZATION_ROLE ( 'design_supplier' ) ;
#98 = PERSON_AND_ORGANIZATION_ROLE ( 'creator' ) ;
#99 = UNCERTAINTY_MEASURE_WITH_UNIT (LENGTH_MEASURE( 1.000000000000000100E-005 ), #42, 'distance_accuracy_value', 'NONE');
#100 = APPROVAL_ROLE ( '' ) ;
#101 = LOCAL_TIME ( 8, 50, 16.00000000000000000, #139 ) ;
#102 = APPROVAL_STATUS ( 'not_yet_approved' ) ;
#103 = ADVANCED_FACE ( 'NONE', ( #48 ), #28, .T. ) ;
#104 = EDGE_CURVE ( 'NONE', #162, #219, #142, .T. ) ;
#105 = EDGE_LOOP ( 'NONE', ( #32, #178, #157, #229, #128 ) ) ;
#106 = ORIENTED_EDGE ( 'NONE', *, *, #174, .F. ) ;
#107 = APPROVAL_PERSON_ORGANIZATION ( #205, #30, #208 ) ;
#108 = ORIENTED_EDGE ( 'NONE', *, *, #64, .T. ) ;
#109 = CARTESIAN_POINT ( 'NONE',  ( 8.326023184197902400, -12.84922284095831200, 2.135332736539828200 ) ) ;
#110 = CARTESIAN_POINT ( 'NONE',  ( -1.577986092664101300E-014, -12.84922284095830800, 1.616697895726347600 ) ) ;
#111 = AXIS2_PLACEMENT_3D ( 'NONE', #7, #44, #118 ) ;
#112 = CARTESIAN_POINT ( 'NONE',  ( -4.359379427258296900, -4.373960111673895300, -0.5503346152573076500 ) ) ;
#113 = CARTESIAN_POINT ( 'NONE',  ( -2.602085213965211000E-014, -4.373960111673897100, -0.5503346152573108700 ) ) ;
#114 = ORGANIZATION ( 'UNSPECIFIED', 'UNSPECIFIED', '' ) ;
#115 = ORIENTED_EDGE ( 'NONE', *, *, #222, .T. ) ;
#116 = CARTESIAN_POINT ( 'NONE',  ( 4.996003610813200500E-016, 2.442490654175340100E-015, 1.578779096148400100 ) ) ;
#117 =( GEOMETRIC_REPRESENTATION_CONTEXT ( 3 ) GLOBAL_UNCERTAINTY_ASSIGNED_CONTEXT ( ( #99 ) ) GLOBAL_UNIT_ASSIGNED_CONTEXT ( ( #42, #171, #190 ) ) REPRESENTATION_CONTEXT ( 'NONE', 'WORKASPACE' ) );
#118 = DIRECTION ( 'NONE',  ( 1.000000000000000000, 0.0000000000000000000, 0.0000000000000000000 ) ) ;
#119 = APPROVAL_PERSON_ORGANIZATION ( #192, #186, #100 ) ;
#120 = CIRCLE ( 'NONE', #31, 12.69999999999999900 ) ;
#121 = DESIGN_CONTEXT ( 'detailed design', #11, 'design' ) ;
#122 = APPROVAL_DATE_TIME ( #187, #30 ) ;
#123 = VERTEX_POINT ( 'NONE', #226 ) ;
#124 = CC_DESIGN_APPROVAL ( #30, ( #132 ) ) ;
#125 = SHAPE_DEFINITION_REPRESENTATION ( #233, #50 ) ;
#126 = CARTESIAN_POINT ( 'NONE',  ( -1.209354138722501600E-014, 4.373960111673921100, -0.5503346152572995400 ) ) ;
#127 = CARTESIAN_POINT ( 'NONE',  ( 4.179164687769890900, 12.84922284095833200, 1.616697895726345400 ) ) ;
#128 = ORIENTED_EDGE ( 'NONE', *, *, #13, .F. ) ;
#129 = DIRECTION ( 'NONE',  ( 1.000000000000000000, 0.0000000000000000000, 0.0000000000000000000 ) ) ;
#130 = APPROVAL_DATE_TIME ( #161, #186 ) ;
#131 = DIRECTION ( 'NONE',  ( 1.000000000000000000, 0.0000000000000000000, 0.0000000000000000000 ) ) ;
#132 = PRODUCT_DEFINITION ( 'UNKNOWN', '', #149, #121 ) ;
#133 = DIRECTION ( 'NONE',  ( -0.0000000000000000000, -0.0000000000000000000, -1.000000000000000000 ) ) ;
#134 = DIRECTION ( 'NONE',  ( 0.0000000000000000000, 0.0000000000000000000, 1.000000000000000000 ) ) ;
#135 = DIRECTION ( 'NONE',  ( 0.0000000000000000000, 0.0000000000000000000, 1.000000000000000000 ) ) ;
#136 = PERSON_AND_ORGANIZATION ( #148, #114 ) ;
#137 = ORIENTED_EDGE ( 'NONE', *, *, #13, .T. ) ;
#138 = SECURITY_CLASSIFICATION_LEVEL ( 'unclassified' ) ;
#139 = COORDINATED_UNIVERSAL_TIME_OFFSET ( 2, 0, .AHEAD. ) ;
#140 = DATE_TIME_ROLE ( 'creation_date' ) ;
#141 = LINE ( 'NONE', #96, #49 ) ;
#142 = CIRCLE ( 'NONE', #191, 51.86999999999999700 ) ;
#143 = LOCAL_TIME ( 8, 50, 16.00000000000000000, #72 ) ;
#144 = CC_DESIGN_PERSON_AND_ORGANIZATION_ASSIGNMENT ( #63, #15, ( #213 ) ) ;
#145 = CARTESIAN_POINT ( 'NONE',  ( 8.685059549408743300, 4.373960111673917500, -0.009335103580209152400 ) ) ;
#146 = CARTESIAN_POINT ( 'NONE',  ( 4.996003610813200500E-016, 2.442490654175340100E-015, 1.578779096148400100 ) ) ;
#147 = CARTESIAN_POINT ( 'NONE',  ( -1.454391833484064300E-014, -4.373960111673895300, -0.5503346152573038700 ) ) ;
#148 = PERSON ( 'UNSPECIFIED', 'UNSPECIFIED', 'UNSPECIFIED', ('UNSPECIFIED'), ('UNSPECIFIED'), ('UNSPECIFIED') ) ;
#149 = PRODUCT_DEFINITION_FORMATION_WITH_SPECIFIED_SOURCE ( 'ANY', '', #217, .NOT_KNOWN. ) ;
#150 = CARTESIAN_POINT ( 'NONE',  ( -12.91016276762463700, 4.373960111673922800, 1.064299744133220700 ) ) ;
#151 = CARTESIAN_POINT ( 'NONE',  ( 4.996003610813200500E-016, 2.442490654175340100E-015, 1.578779096148400100 ) ) ;
#152 = DIRECTION ( 'NONE',  ( 1.000000000000000000, 0.0000000000000000000, 0.0000000000000000000 ) ) ;
#153 = CALENDAR_DATE ( 2018, 21, 12 ) ;
#154 = DIRECTION ( 'NONE',  ( 1.000000000000000000, 0.0000000000000000000, 0.0000000000000000000 ) ) ;
#155 = APPLICATION_PROTOCOL_DEFINITION ( 'international standard', 'config_control_design', 1994, #11 ) ;
#156 = DATE_AND_TIME ( #47, #67 ) ;
#157 = ORIENTED_EDGE ( 'NONE', *, *, #197, .T. ) ;
#158 = APPROVAL_ROLE ( '' ) ;
#159 = COORDINATED_UNIVERSAL_TIME_OFFSET ( 2, 0, .AHEAD. ) ;
#160 =( BOUNDED_SURFACE ( )  B_SPLINE_SURFACE ( 3, 3, ( 
 ( #110, #22, #109, #200 ),
 ( #147, #90, #184, #34 ),
 ( #126, #92, #145, #164 ),
 ( #165, #127, #185, #69 ) ),
 .UNSPECIFIED., .F., .F., .F. ) 
 B_SPLINE_SURFACE_WITH_KNOTS ( ( 4, 4 ),
 ( 4, 4 ),
 ( 0.0000000000000000000, 1.000000000000000000 ),
 ( 0.0000000000000000000, 1.000000000000000000 ),
 .UNSPECIFIED. ) 
 GEOMETRIC_REPRESENTATION_ITEM ( )  RATIONAL_B_SPLINE_SURFACE ( (
 ( 1.000000000000000000, 0.9948464675350997500, 0.9948464675350997500, 1.000000000000000000),
 ( 0.9792211567929266500, 0.9741747087710771500, 0.9741747087710771500, 0.9792211567929266500),
 ( 0.9792211567929266500, 0.9741747087710771500, 0.9741747087710771500, 0.9792211567929266500),
 ( 1.000000000000000000, 0.9948464675350997500, 0.9948464675350997500, 1.000000000000000000) ) ) 
 REPRESENTATION_ITEM ( '' )  SURFACE ( )  );
#161 = DATE_AND_TIME ( #232, #101 ) ;
#162 = VERTEX_POINT ( 'NONE', #26 ) ;
#163 = FACE_OUTER_BOUND ( 'NONE', #166, .T. ) ;
#164 = CARTESIAN_POINT ( 'NONE',  ( 12.91016276762460500, 4.373960111673917500, 1.064299744133212700 ) ) ;
#165 = CARTESIAN_POINT ( 'NONE',  ( -8.581478078972324400E-015, 12.84922284095833300, 1.616697895726347600 ) ) ;
#166 = EDGE_LOOP ( 'NONE', ( #202, #196, #137 ) ) ;
#167 = DIRECTION ( 'NONE',  ( 0.0000000000000000000, 0.0000000000000000000, 1.000000000000000000 ) ) ;
#168 = CARTESIAN_POINT ( 'NONE',  ( -12.37646257961800900, -12.84922284095830500, 3.164584013698124000 ) ) ;
#169 = CC_DESIGN_PERSON_AND_ORGANIZATION_ASSIGNMENT ( #40, #98, ( #149 ) ) ;
#170 = ORIENTED_EDGE ( 'NONE', *, *, #104, .F. ) ;
#171 =( NAMED_UNIT ( * ) PLANE_ANGLE_UNIT ( ) SI_UNIT ( $, .RADIAN. ) );
#172 = LOCAL_TIME ( 8, 50, 16.00000000000000000, #159 ) ;
#173 = MECHANICAL_CONTEXT ( 'NONE', #207, 'mechanical' ) ;
#174 = EDGE_CURVE ( 'NONE', #162, #29, #218, .T. ) ;
#175 = ADVANCED_FACE ( 'NONE', ( #3 ), #231, .T. ) ;
#176 = EDGE_CURVE ( 'NONE', #29, #55, #141, .T. ) ;
#177 = VECTOR ( 'NONE', #135, 1000.000000000000000 ) ;
#178 = ORIENTED_EDGE ( 'NONE', *, *, #176, .T. ) ;
#179 = COORDINATED_UNIVERSAL_TIME_OFFSET ( 2, 0, .AHEAD. ) ;
#180 = CC_DESIGN_APPROVAL ( #186, ( #213 ) ) ;
#181 = CARTESIAN_POINT ( 'NONE',  ( -12.69999999999999900, 3.997792089092478900E-015, 3.500000000000000000 ) ) ;
#182 = APPROVAL_DATE_TIME ( #234, #5 ) ;
#183 = ORIENTED_EDGE ( 'NONE', *, *, #174, .T. ) ;
#184 = CARTESIAN_POINT ( 'NONE',  ( 8.685059549408743300, -4.373960111673898000, -0.009335103580213275800 ) ) ;
#185 = CARTESIAN_POINT ( 'NONE',  ( 8.326023184197907800, 12.84922284095833000, 2.135332736539827800 ) ) ;
#186 = APPROVAL ( #102, 'UNSPECIFIED' ) ;
#187 = DATE_AND_TIME ( #16, #172 ) ;
#188 = CARTESIAN_POINT ( 'NONE',  ( -4.179164687769926400, -12.84922284095830800, 1.616697895726343800 ) ) ;
#189 = CARTESIAN_POINT ( 'NONE',  ( -12.91016276762463900, -4.373960111673891800, 1.064299744133216300 ) ) ;
#190 =( NAMED_UNIT ( * ) SI_UNIT ( $, .STERADIAN. ) SOLID_ANGLE_UNIT ( ) );
#191 = AXIS2_PLACEMENT_3D ( 'NONE', #93, #225, #223 ) ;
#192 = PERSON_AND_ORGANIZATION ( #148, #114 ) ;
#193 = CIRCLE ( 'NONE', #57, 12.69999999999999900 ) ;
#194 = COORDINATED_UNIVERSAL_TIME_OFFSET ( 2, 0, .AHEAD. ) ;
#195 = ADVANCED_FACE ( 'NONE', ( #224 ), #58, .T. ) ;
#196 = ORIENTED_EDGE ( 'NONE', *, *, #104, .T. ) ;
#197 = EDGE_CURVE ( 'NONE', #55, #65, #193, .T. ) ;
#198 = CARTESIAN_POINT ( 'NONE',  ( 4.996003610813200500E-016, 2.442490654175340100E-015, 3.500000000000000000 ) ) ;
#199 = PERSON_AND_ORGANIZATION ( #148, #114 ) ;
#200 = CARTESIAN_POINT ( 'NONE',  ( 12.37646257961797500, -12.84922284095831200, 3.164584013698116500 ) ) ;
#201 = DIRECTION ( 'NONE',  ( 0.0000000000000000000, 0.0000000000000000000, 1.000000000000000000 ) ) ;
#202 = ORIENTED_EDGE ( 'NONE', *, *, #66, .T. ) ;
#203 = DIRECTION ( 'NONE',  ( 1.000000000000000000, 0.0000000000000000000, -0.0000000000000000000 ) ) ;
#204 = CC_DESIGN_SECURITY_CLASSIFICATION ( #213, ( #149 ) ) ;
#205 = PERSON_AND_ORGANIZATION ( #148, #114 ) ;
#206 = CARTESIAN_POINT ( 'NONE',  ( -2.081668171172168500E-014, 12.84922284095833200, 1.616697895726340500 ) ) ;
#207 = APPLICATION_CONTEXT ( 'configuration controlled 3d designs of mechanical parts and assemblies' ) ;
#208 = APPROVAL_ROLE ( '' ) ;
#209 = PERSON_AND_ORGANIZATION_ROLE ( 'design_owner' ) ;
#210 = APPLICATION_PROTOCOL_DEFINITION ( 'international standard', 'config_control_design', 1994, #207 ) ;
#211 = CIRCLE ( 'NONE', #79, 12.69999999999999900 ) ;
#212 = CC_DESIGN_APPROVAL ( #5, ( #149 ) ) ;
#213 = SECURITY_CLASSIFICATION ( '', '', #138 ) ;
#214 = ORIENTED_EDGE ( 'NONE', *, *, #64, .F. ) ;
#215 = CIRCLE ( 'NONE', #1, 12.69999999999999900 ) ;
#216 = PRODUCT_RELATED_PRODUCT_CATEGORY ( 'detail', '', ( #217 ) ) ;
#217 = PRODUCT ( '110-0219E BK7 pl-cx 25.4 F100', '110-0219E BK7 pl-cx 25.4 F100', '', ( #173 ) ) ;
#218 = CIRCLE ( 'NONE', #87, 12.69999999999999900 ) ;
#219 = VERTEX_POINT ( 'NONE', #77 ) ;
#220 = CARTESIAN_POINT ( 'NONE',  ( 12.69999999999999900, 2.442490654175340100E-015, 3.500000000000000000 ) ) ;
#221 = CARTESIAN_POINT ( 'NONE',  ( -8.326023184197939700, -12.84922284095830700, 2.135332736539831800 ) ) ;
#222 = EDGE_CURVE ( 'NONE', #123, #65, #59, .T. ) ;
#223 = DIRECTION ( 'NONE',  ( -2.801096586449978200E-016, -1.000000000000000000, 2.675494082863785900E-016 ) ) ;
#224 = FACE_OUTER_BOUND ( 'NONE', #235, .T. ) ;
#225 = DIRECTION ( 'NONE',  ( 1.000000000000000000, -2.801096586449980200E-016, -5.251699512849379800E-016 ) ) ;
#226 = CARTESIAN_POINT ( 'NONE',  ( 12.69999999999999900, 2.442490654175340100E-015, 1.578779096148400100 ) ) ;
#227 = CARTESIAN_POINT ( 'NONE',  ( 0.0000000000000000000, 26.11199999999999800, 3.500000000000000000 ) ) ;
#228 = AXIS2_PLACEMENT_3D ( 'NONE', #2, #201, #21 ) ;
#229 = ORIENTED_EDGE ( 'NONE', *, *, #222, .F. ) ;
#230 = CC_DESIGN_DATE_AND_TIME_ASSIGNMENT ( #156, #14, ( #213 ) ) ;
#231 =( BOUNDED_SURFACE ( )  B_SPLINE_SURFACE ( 3, 3, ( 
 ( #168, #221, #188, #74 ),
 ( #189, #62, #112, #113 ),
 ( #150, #95, #6, #80 ),
 ( #46, #24, #61, #206 ) ),
 .UNSPECIFIED., .F., .F., .F. ) 
 B_SPLINE_SURFACE_WITH_KNOTS ( ( 4, 4 ),
 ( 4, 4 ),
 ( 0.0000000000000000000, 1.000000000000000000 ),
 ( 0.0000000000000000000, 1.000000000000000000 ),
 .UNSPECIFIED. ) 
 GEOMETRIC_REPRESENTATION_ITEM ( )  RATIONAL_B_SPLINE_SURFACE ( (
 ( 1.000000000000000000, 0.9948464675350997500, 0.9948464675350997500, 1.000000000000000000),
 ( 0.9792211567929266500, 0.9741747087710771500, 0.9741747087710771500, 0.9792211567929266500),
 ( 0.9792211567929266500, 0.9741747087710771500, 0.9741747087710771500, 0.9792211567929266500),
 ( 1.000000000000000000, 0.9948464675350997500, 0.9948464675350997500, 1.000000000000000000) ) ) 
 REPRESENTATION_ITEM ( '' )  SURFACE ( )  );
#232 = CALENDAR_DATE ( 2018, 21, 12 ) ;
#233 = PRODUCT_DEFINITION_SHAPE ( 'NONE', 'NONE',  #132 ) ;
#234 = DATE_AND_TIME ( #88, #45 ) ;
#235 = EDGE_LOOP ( 'NONE', ( #214, #81 ) ) ;
ENDSEC;
END-ISO-10303-21;
