ISO-10303-21;
HEADER;
FILE_DESCRIPTION (( 'STEP AP203' ),
    '1' );
FILE_NAME ('110-0218E BK7 pl-cx 25.4 F90.STEP',
    '2018-12-21T06:50:30',
    ( '' ),
    ( '' ),
    'SwSTEP 2.0',
    'SolidWorks 2017',
    '' );
FILE_SCHEMA (( 'CONFIG_CONTROL_DESIGN' ));
ENDSEC;

DATA;
#1 = CARTESIAN_POINT ( 'NONE',  ( 8.726171191824187500, -4.395968181666670900, -0.01121992952718290200 ) ) ;
#2 = LINE ( 'NONE', #38, #160 ) ;
#3 = CC_DESIGN_PERSON_AND_ORGANIZATION_ASSIGNMENT ( #23, #191, ( #24 ) ) ;
#4 = DIRECTION ( 'NONE',  ( 0.0000000000000000000, 0.0000000000000000000, 1.000000000000000000 ) ) ;
#5 = ORIENTED_EDGE ( 'NONE', *, *, #100, .T. ) ;
#6 = CARTESIAN_POINT ( 'NONE',  ( 4.384096008575991900, 4.395968181666679800, -0.6167617657632250600 ) ) ;
#7 = FACE_OUTER_BOUND ( 'NONE', #170, .T. ) ;
#8 = AXIS2_PLACEMENT_3D ( 'NONE', #127, #18, #146 ) ;
#9 = PERSON_AND_ORGANIZATION ( #92, #123 ) ;
#10 = ORIENTED_EDGE ( 'NONE', *, *, #196, .F. ) ;
#11 = CALENDAR_DATE ( 2018, 21, 12 ) ;
#12 = DIRECTION ( 'NONE',  ( 1.000000000000000000, 0.0000000000000000000, 0.0000000000000000000 ) ) ;
#13 = LOCAL_TIME ( 8, 50, 29.00000000000000000, #49 ) ;
#14 = DIRECTION ( 'NONE',  ( -0.0000000000000000000, -0.0000000000000000000, -1.000000000000000000 ) ) ;
#15 =( BOUNDED_SURFACE ( )  B_SPLINE_SURFACE ( 3, 3, ( 
 ( #96, #34, #216, #114 ),
 ( #80, #97, #161, #145 ),
 ( #76, #53, #204, #178 ),
 ( #200, #214, #217, #219 ) ),
 .UNSPECIFIED., .F., .F., .F. ) 
 B_SPLINE_SURFACE_WITH_KNOTS ( ( 4, 4 ),
 ( 4, 4 ),
 ( 0.0000000000000000000, 1.000000000000000000 ),
 ( 0.0000000000000000000, 1.000000000000000000 ),
 .UNSPECIFIED. ) 
 GEOMETRIC_REPRESENTATION_ITEM ( )  RATIONAL_B_SPLINE_SURFACE ( (
 ( 1.000000000000000000, 0.9936101117546088900, 0.9936101117546088900, 1.000000000000000000),
 ( 0.9742605835166735500, 0.9680351672661125000, 0.9680351672661125000, 0.9742605835166735500),
 ( 0.9742605835166735500, 0.9680351672661125000, 0.9680351672661125000, 0.9742605835166735500),
 ( 1.000000000000000000, 0.9936101117546088900, 0.9936101117546088900, 1.000000000000000000) ) ) 
 REPRESENTATION_ITEM ( '' )  SURFACE ( )  );
#16 = EDGE_LOOP ( 'NONE', ( #233, #105, #228 ) ) ;
#17 = CARTESIAN_POINT ( 'NONE',  ( 12.28104281044911700, -12.84845557737390800, 3.515363038420749000 ) ) ;
#18 = DIRECTION ( 'NONE',  ( -0.0000000000000000000, -0.0000000000000000000, -1.000000000000000000 ) ) ;
#19 = LOCAL_TIME ( 8, 50, 29.00000000000000000, #184 ) ;
#20 = CARTESIAN_POINT ( 'NONE',  ( 12.69999999999999900, 2.442490654175340100E-015, 1.760431784847960000 ) ) ;
#21 = CARTESIAN_POINT ( 'NONE',  ( -3.524117643552032200E-015, 4.395968181666678900, -0.6167617657632249500 ) ) ;
#22 = VERTEX_POINT ( 'NONE', #73 ) ;
#23 = PERSON_AND_ORGANIZATION ( #92, #123 ) ;
#24 = PRODUCT_DEFINITION_FORMATION_WITH_SPECIFIED_SOURCE ( 'ANY', '', #28, .NOT_KNOWN. ) ;
#25 = EDGE_CURVE ( 'NONE', #51, #33, #226, .T. ) ;
#26 = CC_DESIGN_SECURITY_CLASSIFICATION ( #185, ( #24 ) ) ;
#27 = EDGE_LOOP ( 'NONE', ( #124, #186 ) ) ;
#28 = PRODUCT ( '110-0218E BK7 pl-cx 25.4 F90', '110-0218E BK7 pl-cx 25.4 F90', '', ( #39 ) ) ;
#29 = ADVANCED_FACE ( 'NONE', ( #224 ), #159, .T. ) ;
#30 = FACE_OUTER_BOUND ( 'NONE', #215, .T. ) ;
#31 = CARTESIAN_POINT ( 'NONE',  ( 12.69999999999999900, 2.442490654175340100E-015, 3.799999999999999400 ) ) ;
#32 = APPROVAL ( #62, 'UNSPECIFIED' ) ;
#33 = VERTEX_POINT ( 'NONE', #31 ) ;
#34 = CARTESIAN_POINT ( 'NONE',  ( -8.279886389889295400, -12.84845557737391200, 2.377232488859292800 ) ) ;
#35 = ORIENTED_EDGE ( 'NONE', *, *, #100, .F. ) ;
#36 = DIRECTION ( 'NONE',  ( 0.0000000000000000000, 0.0000000000000000000, 1.000000000000000000 ) ) ;
#37 = CARTESIAN_POINT ( 'NONE',  ( -12.69999999999999900, 3.997792089092478900E-015, 1.760431784847960000 ) ) ;
#38 = CARTESIAN_POINT ( 'NONE',  ( -12.69999999999999900, 3.997792089092478900E-015, 1.760431784847960000 ) ) ;
#39 = MECHANICAL_CONTEXT ( 'NONE', #222, 'mechanical' ) ;
#40 = ORIENTED_EDGE ( 'NONE', *, *, #173, .T. ) ;
#41 = DATE_AND_TIME ( #46, #13 ) ;
#42 = CARTESIAN_POINT ( 'NONE',  ( 4.159879066707595100, 12.84845557737391700, 1.802660033409765300 ) ) ;
#43 = ORIENTED_EDGE ( 'NONE', *, *, #197, .F. ) ;
#44 = PERSON_AND_ORGANIZATION_ROLE ( 'design_owner' ) ;
#45 = AXIS2_PLACEMENT_3D ( 'NONE', #180, #82, #116 ) ;
#46 = CALENDAR_DATE ( 2018, 21, 12 ) ;
#47 = PRODUCT_RELATED_PRODUCT_CATEGORY ( 'detail', '', ( #28 ) ) ;
#48 = EDGE_CURVE ( 'NONE', #22, #58, #77, .T. ) ;
#49 = COORDINATED_UNIVERSAL_TIME_OFFSET ( 2, 0, .AHEAD. ) ;
#50 = DIRECTION ( 'NONE',  ( 0.0000000000000000000, 0.0000000000000000000, 1.000000000000000000 ) ) ;
#51 = VERTEX_POINT ( 'NONE', #94 ) ;
#52 = AXIS2_PLACEMENT_3D ( 'NONE', #131, #150, #205 ) ;
#53 = CARTESIAN_POINT ( 'NONE',  ( -8.726171191824194700, 4.395968181666677100, -0.01121992952718593700 ) ) ;
#54 = CARTESIAN_POINT ( 'NONE',  ( 4.996003610813200500E-016, 2.442490654175340100E-015, 1.760431784847960000 ) ) ;
#55 = APPROVAL ( #120, 'UNSPECIFIED' ) ;
#56 = DIRECTION ( 'NONE',  ( 0.0000000000000000000, 0.0000000000000000000, 1.000000000000000000 ) ) ;
#57 =( LENGTH_UNIT ( ) NAMED_UNIT ( * ) SI_UNIT ( .MILLI., .METRE. ) );
#58 = VERTEX_POINT ( 'NONE', #177 ) ;
#59 = CARTESIAN_POINT ( 'NONE',  ( 1.952383314528475900E-015, -12.84845557737391200, 1.802660033409765500 ) ) ;
#60 = APPROVAL_PERSON_ORGANIZATION ( #176, #32, #65 ) ;
#61 = CARTESIAN_POINT ( 'NONE',  ( 12.28104281044911000, 12.84845557737392100, 3.515363038420749000 ) ) ;
#62 = APPROVAL_STATUS ( 'not_yet_approved' ) ;
#63 = DIRECTION ( 'NONE',  ( 1.000000000000000000, 0.0000000000000000000, 0.0000000000000000000 ) ) ;
#64 = PERSON_AND_ORGANIZATION ( #92, #123 ) ;
#65 = APPROVAL_ROLE ( '' ) ;
#66 = AXIS2_PLACEMENT_3D ( 'NONE', #220, #14, #162 ) ;
#67 = COORDINATED_UNIVERSAL_TIME_OFFSET ( 2, 0, .AHEAD. ) ;
#68 = DATE_AND_TIME ( #118, #112 ) ;
#69 = ADVANCED_BREP_SHAPE_REPRESENTATION ( '110-0218E BK7 pl-cx 25.4 F90', ( #194, #52 ), #231 ) ;
#70 = CC_DESIGN_APPROVAL ( #155, ( #185 ) ) ;
#71 = DATE_AND_TIME ( #134, #19 ) ;
#72 = AXIS2_PLACEMENT_3D ( 'NONE', #75, #50, #212 ) ;
#73 = CARTESIAN_POINT ( 'NONE',  ( -5.999870537693852800E-015, 12.69999999999998700, 1.760431784847958500 ) ) ;
#74 = APPROVAL_DATE_TIME ( #93, #32 ) ;
#75 = CARTESIAN_POINT ( 'NONE',  ( 0.0000000000000000000, 26.11199999999999800, 3.799999999999999800 ) ) ;
#76 = CARTESIAN_POINT ( 'NONE',  ( -12.94298942422246200, 4.395968181666675400, 1.188255708960526600 ) ) ;
#77 = CIRCLE ( 'NONE', #66, 12.69999999999999900 ) ;
#78 = DIRECTION ( 'NONE',  ( -0.0000000000000000000, -0.0000000000000000000, -1.000000000000000000 ) ) ;
#79 = PRODUCT_DEFINITION_SHAPE ( 'NONE', 'NONE',  #135 ) ;
#80 = CARTESIAN_POINT ( 'NONE',  ( -12.94298942422246100, -4.395968181666677100, 1.188255708960527900 ) ) ;
#81 = CARTESIAN_POINT ( 'NONE',  ( -7.881875632981668400E-016, -4.395968181666673600, -0.6167617657632240600 ) ) ;
#82 = DIRECTION ( 'NONE',  ( -0.0000000000000000000, -0.0000000000000000000, -1.000000000000000000 ) ) ;
#83 = CIRCLE ( 'NONE', #45, 12.69999999999999900 ) ;
#84 = SECURITY_CLASSIFICATION_LEVEL ( 'unclassified' ) ;
#85 = CARTESIAN_POINT ( 'NONE',  ( 12.94298942422246100, -4.395968181666669100, 1.188255708960530600 ) ) ;
#86 = APPROVAL_DATE_TIME ( #41, #55 ) ;
#87 = EDGE_CURVE ( 'NONE', #89, #22, #168, .T. ) ;
#88 = DIRECTION ( 'NONE',  ( -0.0000000000000000000, -0.0000000000000000000, -1.000000000000000000 ) ) ;
#89 = VERTEX_POINT ( 'NONE', #95 ) ;
#90 = COORDINATED_UNIVERSAL_TIME_OFFSET ( 2, 0, .AHEAD. ) ;
#91 = AXIS2_PLACEMENT_3D ( 'NONE', #201, #181, #163 ) ;
#92 = PERSON ( 'UNSPECIFIED', 'UNSPECIFIED', 'UNSPECIFIED', ('UNSPECIFIED'), ('UNSPECIFIED'), ('UNSPECIFIED') ) ;
#93 = DATE_AND_TIME ( #156, #210 ) ;
#94 = CARTESIAN_POINT ( 'NONE',  ( -12.69999999999999900, 3.997792089092478900E-015, 3.799999999999999400 ) ) ;
#95 = CARTESIAN_POINT ( 'NONE',  ( 1.904261290223616500E-015, -12.69999999999998500, 1.760431784847958500 ) ) ;
#96 = CARTESIAN_POINT ( 'NONE',  ( -12.28104281044911200, -12.84845557737391500, 3.515363038420746400 ) ) ;
#97 = CARTESIAN_POINT ( 'NONE',  ( -8.726171191824192900, -4.395968181666675400, -0.01121992952718463600 ) ) ;
#98 = CARTESIAN_POINT ( 'NONE',  ( 4.384096008575994600, -4.395968181666671800, -0.6167617657632242800 ) ) ;
#99 = AXIS2_PLACEMENT_3D ( 'NONE', #141, #175, #12 ) ;
#100 = EDGE_CURVE ( 'NONE', #122, #22, #83, .T. ) ;
#101 = CARTESIAN_POINT ( 'NONE',  ( 4.996003610813200500E-016, 2.442490654175340100E-015, 1.760431784847960000 ) ) ;
#102 = ORIENTED_EDGE ( 'NONE', *, *, #218, .F. ) ;
#103 = CARTESIAN_POINT ( 'NONE',  ( 8.279886389889288300, 12.84845557737391700, 2.377232488859294600 ) ) ;
#104 = APPROVAL_ROLE ( '' ) ;
#105 = ORIENTED_EDGE ( 'NONE', *, *, #87, .T. ) ;
#106 = AXIS2_PLACEMENT_3D ( 'NONE', #54, #78, #179 ) ;
#107 = UNCERTAINTY_MEASURE_WITH_UNIT (LENGTH_MEASURE( 1.000000000000000100E-005 ), #57, 'distance_accuracy_value', 'NONE');
#108 = EDGE_LOOP ( 'NONE', ( #43, #102, #172, #230, #40 ) ) ;
#109 = EDGE_CURVE ( 'NONE', #58, #89, #209, .T. ) ;
#110 = APPROVAL_DATE_TIME ( #151, #155 ) ;
#111 = APPROVAL_PERSON_ORGANIZATION ( #121, #55, #119 ) ;
#112 = LOCAL_TIME ( 8, 50, 29.00000000000000000, #90 ) ;
#113 = CARTESIAN_POINT ( 'NONE',  ( 4.996003610813200500E-016, 2.442490654175340100E-015, 1.760431784847960000 ) ) ;
#114 = CARTESIAN_POINT ( 'NONE',  ( -6.938893903907228400E-015, -12.84845557737391200, 1.802660033409763300 ) ) ;
#115 = ORIENTED_EDGE ( 'NONE', *, *, #48, .F. ) ;
#116 = DIRECTION ( 'NONE',  ( 1.000000000000000000, 8.881784197001252300E-016, 0.0000000000000000000 ) ) ;
#117 = CYLINDRICAL_SURFACE ( 'NONE', #207, 12.69999999999999900 ) ;
#118 = CALENDAR_DATE ( 2018, 21, 12 ) ;
#119 = APPROVAL_ROLE ( '' ) ;
#120 = APPROVAL_STATUS ( 'not_yet_approved' ) ;
#121 = PERSON_AND_ORGANIZATION ( #92, #123 ) ;
#122 = VERTEX_POINT ( 'NONE', #37 ) ;
#123 = ORGANIZATION ( 'UNSPECIFIED', 'UNSPECIFIED', '' ) ;
#124 = ORIENTED_EDGE ( 'NONE', *, *, #173, .F. ) ;
#125 = SHAPE_DEFINITION_REPRESENTATION ( #79, #69 ) ;
#126 = CC_DESIGN_APPROVAL ( #55, ( #135 ) ) ;
#127 = CARTESIAN_POINT ( 'NONE',  ( 4.996003610813200500E-016, 2.442490654175340100E-015, 3.799999999999999400 ) ) ;
#128 = PERSON_AND_ORGANIZATION_ROLE ( 'classification_officer' ) ;
#129 = PERSON_AND_ORGANIZATION ( #92, #123 ) ;
#130 = ORIENTED_EDGE ( 'NONE', *, *, #25, .T. ) ;
#131 = CARTESIAN_POINT ( 'NONE',  ( 0.0000000000000000000, 0.0000000000000000000, 0.0000000000000000000 ) ) ;
#132 = DATE_TIME_ROLE ( 'creation_date' ) ;
#133 = CLOSED_SHELL ( 'NONE', ( #211, #138, #137, #229, #29 ) ) ;
#134 = CALENDAR_DATE ( 2018, 21, 12 ) ;
#135 = PRODUCT_DEFINITION ( 'UNKNOWN', '', #24, #136 ) ;
#136 = DESIGN_CONTEXT ( 'detailed design', #167, 'design' ) ;
#137 = ADVANCED_FACE ( 'NONE', ( #7 ), #15, .T. ) ;
#138 = ADVANCED_FACE ( 'NONE', ( #30 ), #213, .T. ) ;
#139 = CC_DESIGN_PERSON_AND_ORGANIZATION_ASSIGNMENT ( #227, #225, ( #24 ) ) ;
#140 = CC_DESIGN_PERSON_AND_ORGANIZATION_ASSIGNMENT ( #129, #128, ( #185 ) ) ;
#141 = CARTESIAN_POINT ( 'NONE',  ( 4.996003610813200500E-016, 2.442490654175340100E-015, 3.799999999999999400 ) ) ;
#142 = AXIS2_PLACEMENT_3D ( 'NONE', #113, #56, #234 ) ;
#143 = FACE_OUTER_BOUND ( 'NONE', #16, .T. ) ;
#144 = CARTESIAN_POINT ( 'NONE',  ( 4.159879066707602200, -12.84845557737390800, 1.802660033409765300 ) ) ;
#145 = CARTESIAN_POINT ( 'NONE',  ( -1.040834085586084300E-014, -4.395968181666672700, -0.6167617657632265000 ) ) ;
#146 = DIRECTION ( 'NONE',  ( 1.000000000000000000, 0.0000000000000000000, 0.0000000000000000000 ) ) ;
#147 =( NAMED_UNIT ( * ) PLANE_ANGLE_UNIT ( ) SI_UNIT ( $, .RADIAN. ) );
#148 =( NAMED_UNIT ( * ) SI_UNIT ( $, .STERADIAN. ) SOLID_ANGLE_UNIT ( ) );
#149 = CARTESIAN_POINT ( 'NONE',  ( 8.726171191824187500, 4.395968181666680700, -0.01121992952718398600 ) ) ;
#150 = DIRECTION ( 'NONE',  ( 0.0000000000000000000, 0.0000000000000000000, 1.000000000000000000 ) ) ;
#151 = DATE_AND_TIME ( #11, #199 ) ;
#152 = AXIS2_PLACEMENT_3D ( 'NONE', #101, #88, #63 ) ;
#153 = APPLICATION_PROTOCOL_DEFINITION ( 'international standard', 'config_control_design', 1994, #222 ) ;
#154 = CC_DESIGN_DATE_AND_TIME_ASSIGNMENT ( #68, #188, ( #185 ) ) ;
#155 = APPROVAL ( #208, 'UNSPECIFIED' ) ;
#156 = CALENDAR_DATE ( 2018, 21, 12 ) ;
#157 = CC_DESIGN_PERSON_AND_ORGANIZATION_ASSIGNMENT ( #232, #44, ( #28 ) ) ;
#158 = APPROVAL_PERSON_ORGANIZATION ( #9, #155, #104 ) ;
#159 = PLANE ( 'NONE',  #72 ) ;
#160 = VECTOR ( 'NONE', #36, 1000.000000000000000 ) ;
#161 = CARTESIAN_POINT ( 'NONE',  ( -4.384096008576001700, -4.395968181666674500, -0.6167617657632252800 ) ) ;
#162 = DIRECTION ( 'NONE',  ( 1.000000000000000000, -8.881784197001252300E-016, 0.0000000000000000000 ) ) ;
#163 = DIRECTION ( 'NONE',  ( 3.111862924376959700E-016, -1.000000000000000000, 0.0000000000000000000 ) ) ;
#164 = DIRECTION ( 'NONE',  ( 0.0000000000000000000, 0.0000000000000000000, 1.000000000000000000 ) ) ;
#165 = CIRCLE ( 'NONE', #152, 12.69999999999999900 ) ;
#166 =( BOUNDED_SURFACE ( )  B_SPLINE_SURFACE ( 3, 3, ( 
 ( #59, #144, #182, #17 ),
 ( #81, #98, #1, #85 ),
 ( #21, #6, #149, #206 ),
 ( #171, #42, #103, #61 ) ),
 .UNSPECIFIED., .F., .F., .T. ) 
 B_SPLINE_SURFACE_WITH_KNOTS ( ( 4, 4 ),
 ( 4, 4 ),
 ( 0.0000000000000000000, 1.000000000000000000 ),
 ( 0.0000000000000000000, 1.000000000000000000 ),
 .UNSPECIFIED. ) 
 GEOMETRIC_REPRESENTATION_ITEM ( )  RATIONAL_B_SPLINE_SURFACE ( (
 ( 1.000000000000000000, 0.9936101117546088900, 0.9936101117546088900, 1.000000000000000000),
 ( 0.9742605835166735500, 0.9680351672661125000, 0.9680351672661125000, 0.9742605835166735500),
 ( 0.9742605835166735500, 0.9680351672661125000, 0.9680351672661125000, 0.9742605835166735500),
 ( 1.000000000000000000, 0.9936101117546088900, 0.9936101117546088900, 1.000000000000000000) ) ) 
 REPRESENTATION_ITEM ( '' )  SURFACE ( )  );
#167 = APPLICATION_CONTEXT ( 'configuration controlled 3d designs of mechanical parts and assemblies' ) ;
#168 = CIRCLE ( 'NONE', #91, 46.68999999999999800 ) ;
#169 = PERSON_AND_ORGANIZATION_ROLE ( 'creator' ) ;
#170 = EDGE_LOOP ( 'NONE', ( #223, #189, #5 ) ) ;
#171 = CARTESIAN_POINT ( 'NONE',  ( -6.044143194818375700E-015, 12.84845557737391700, 1.802660033409765500 ) ) ;
#172 = ORIENTED_EDGE ( 'NONE', *, *, #109, .F. ) ;
#173 = EDGE_CURVE ( 'NONE', #33, #51, #190, .T. ) ;
#174 = CC_DESIGN_PERSON_AND_ORGANIZATION_ASSIGNMENT ( #64, #169, ( #135 ) ) ;
#175 = DIRECTION ( 'NONE',  ( -0.0000000000000000000, -0.0000000000000000000, -1.000000000000000000 ) ) ;
#176 = PERSON_AND_ORGANIZATION ( #92, #123 ) ;
#177 = CARTESIAN_POINT ( 'NONE',  ( 12.69999999999999900, 2.442490654175340100E-015, 1.760431784847960000 ) ) ;
#178 = CARTESIAN_POINT ( 'NONE',  ( -1.214306433183765100E-014, 4.395968181666680700, -0.6167617657632272800 ) ) ;
#179 = DIRECTION ( 'NONE',  ( 1.000000000000000000, 0.0000000000000000000, 0.0000000000000000000 ) ) ;
#180 = CARTESIAN_POINT ( 'NONE',  ( 4.996003610813200500E-016, 2.442490654175340100E-015, 1.760431784847960000 ) ) ;
#181 = DIRECTION ( 'NONE',  ( 1.000000000000000000, 3.111862924376960200E-016, -4.557810602427550200E-017 ) ) ;
#182 = CARTESIAN_POINT ( 'NONE',  ( 8.279886389889295400, -12.84845557737390800, 2.377232488859294600 ) ) ;
#183 = APPLICATION_PROTOCOL_DEFINITION ( 'international standard', 'config_control_design', 1994, #167 ) ;
#184 = COORDINATED_UNIVERSAL_TIME_OFFSET ( 2, 0, .AHEAD. ) ;
#185 = SECURITY_CLASSIFICATION ( '', '', #84 ) ;
#186 = ORIENTED_EDGE ( 'NONE', *, *, #25, .F. ) ;
#187 = DIRECTION ( 'NONE',  ( 1.000000000000000000, 0.0000000000000000000, 0.0000000000000000000 ) ) ;
#188 = DATE_TIME_ROLE ( 'classification_date' ) ;
#189 = ORIENTED_EDGE ( 'NONE', *, *, #218, .T. ) ;
#190 = CIRCLE ( 'NONE', #8, 12.69999999999999900 ) ;
#191 = PERSON_AND_ORGANIZATION_ROLE ( 'creator' ) ;
#192 = CC_DESIGN_DATE_AND_TIME_ASSIGNMENT ( #71, #132, ( #135 ) ) ;
#193 = ORIENTED_EDGE ( 'NONE', *, *, #197, .T. ) ;
#194 = MANIFOLD_SOLID_BREP ( 'Imported1', #133 ) ;
#195 = FACE_OUTER_BOUND ( 'NONE', #108, .T. ) ;
#196 = EDGE_CURVE ( 'NONE', #58, #33, #235, .T. ) ;
#197 = EDGE_CURVE ( 'NONE', #122, #51, #2, .T. ) ;
#198 = COORDINATED_UNIVERSAL_TIME_OFFSET ( 2, 0, .AHEAD. ) ;
#199 = LOCAL_TIME ( 8, 50, 29.00000000000000000, #67 ) ;
#200 = CARTESIAN_POINT ( 'NONE',  ( -12.28104281044911900, 12.84845557737391400, 3.515363038420746400 ) ) ;
#201 = CARTESIAN_POINT ( 'NONE',  ( 0.0000000000000000000, 0.0000000000000000000, 46.68999999999999800 ) ) ;
#202 = CC_DESIGN_APPROVAL ( #32, ( #24 ) ) ;
#203 = VECTOR ( 'NONE', #164, 1000.000000000000000 ) ;
#204 = CARTESIAN_POINT ( 'NONE',  ( -4.384096008576003500, 4.395968181666677100, -0.6167617657632263900 ) ) ;
#205 = DIRECTION ( 'NONE',  ( 1.000000000000000000, 0.0000000000000000000, 0.0000000000000000000 ) ) ;
#206 = CARTESIAN_POINT ( 'NONE',  ( 12.94298942422245900, 4.395968181666682500, 1.188255708960529700 ) ) ;
#207 = AXIS2_PLACEMENT_3D ( 'NONE', #221, #4, #187 ) ;
#208 = APPROVAL_STATUS ( 'not_yet_approved' ) ;
#209 = CIRCLE ( 'NONE', #106, 12.69999999999999900 ) ;
#210 = LOCAL_TIME ( 8, 50, 29.00000000000000000, #198 ) ;
#211 = ADVANCED_FACE ( 'NONE', ( #143 ), #166, .T. ) ;
#212 = DIRECTION ( 'NONE',  ( 1.000000000000000000, 0.0000000000000000000, -0.0000000000000000000 ) ) ;
#213 = CYLINDRICAL_SURFACE ( 'NONE', #142, 12.69999999999999900 ) ;
#214 = CARTESIAN_POINT ( 'NONE',  ( -8.279886389889302500, 12.84845557737391400, 2.377232488859292800 ) ) ;
#215 = EDGE_LOOP ( 'NONE', ( #35, #193, #130, #10, #115 ) ) ;
#216 = CARTESIAN_POINT ( 'NONE',  ( -4.159879066707603100, -12.84845557737391200, 1.802660033409764000 ) ) ;
#217 = CARTESIAN_POINT ( 'NONE',  ( -4.159879066707610200, 12.84845557737391400, 1.802660033409764200 ) ) ;
#218 = EDGE_CURVE ( 'NONE', #89, #122, #165, .T. ) ;
#219 = CARTESIAN_POINT ( 'NONE',  ( -1.387778780781445700E-014, 12.84845557737391700, 1.802660033409763600 ) ) ;
#220 = CARTESIAN_POINT ( 'NONE',  ( 4.996003610813200500E-016, 2.442490654175340100E-015, 1.760431784847960000 ) ) ;
#221 = CARTESIAN_POINT ( 'NONE',  ( 4.996003610813200500E-016, 2.442490654175340100E-015, 1.760431784847960000 ) ) ;
#222 = APPLICATION_CONTEXT ( 'configuration controlled 3d designs of mechanical parts and assemblies' ) ;
#223 = ORIENTED_EDGE ( 'NONE', *, *, #87, .F. ) ;
#224 = FACE_OUTER_BOUND ( 'NONE', #27, .T. ) ;
#225 = PERSON_AND_ORGANIZATION_ROLE ( 'design_supplier' ) ;
#226 = CIRCLE ( 'NONE', #99, 12.69999999999999900 ) ;
#227 = PERSON_AND_ORGANIZATION ( #92, #123 ) ;
#228 = ORIENTED_EDGE ( 'NONE', *, *, #48, .T. ) ;
#229 = ADVANCED_FACE ( 'NONE', ( #195 ), #117, .T. ) ;
#230 = ORIENTED_EDGE ( 'NONE', *, *, #196, .T. ) ;
#231 =( GEOMETRIC_REPRESENTATION_CONTEXT ( 3 ) GLOBAL_UNCERTAINTY_ASSIGNED_CONTEXT ( ( #107 ) ) GLOBAL_UNIT_ASSIGNED_CONTEXT ( ( #57, #147, #148 ) ) REPRESENTATION_CONTEXT ( 'NONE', 'WORKASPACE' ) );
#232 = PERSON_AND_ORGANIZATION ( #92, #123 ) ;
#233 = ORIENTED_EDGE ( 'NONE', *, *, #109, .T. ) ;
#234 = DIRECTION ( 'NONE',  ( 1.000000000000000000, 0.0000000000000000000, 0.0000000000000000000 ) ) ;
#235 = LINE ( 'NONE', #20, #203 ) ;
ENDSEC;
END-ISO-10303-21;
