ISO-10303-21;
HEADER;
FILE_DESCRIPTION (( 'STEP AP203' ),
    '1' );
FILE_NAME ('110-0215E BK7 pl-cx 25.4 F75.STEP',
    '2018-12-21T06:50:45',
    ( '' ),
    ( '' ),
    'SwSTEP 2.0',
    'SolidWorks 2017',
    '' );
FILE_SCHEMA (( 'CONFIG_CONTROL_DESIGN' ));
ENDSEC;

DATA;
#1 = DATE_AND_TIME ( #82, #91 ) ;
#2 = EDGE_CURVE ( 'NONE', #17, #120, #157, .T. ) ;
#3 = CARTESIAN_POINT ( 'NONE',  ( 1.065814103640150000E-014, 1.065814103640150000E-014, 38.89999999999999900 ) ) ;
#4 = CIRCLE ( 'NONE', #199, 12.69999999999999900 ) ;
#5 = DIRECTION ( 'NONE',  ( 1.000000000000000000, 0.0000000000000000000, 0.0000000000000000000 ) ) ;
#6 = CARTESIAN_POINT ( 'NONE',  ( 0.0000000000000000000, 4.448607474774875400, -0.7557729138377593500 ) ) ;
#7 = CARTESIAN_POINT ( 'NONE',  ( 4.114079159145792800, 12.84663780296892300, 2.182512379530515900 ) ) ;
#8 = PERSON_AND_ORGANIZATION ( #235, #156 ) ;
#9 = EDGE_LOOP ( 'NONE', ( #175, #86, #214 ) ) ;
#10 = CARTESIAN_POINT ( 'NONE',  ( 12.69999999999999900, 2.442490654175340100E-015, 2.131535250979000200 ) ) ;
#11 = PERSON_AND_ORGANIZATION_ROLE ( 'creator' ) ;
#12 = ORIENTED_EDGE ( 'NONE', *, *, #2, .F. ) ;
#13 = PRODUCT ( '110-0215E BK7 pl-cx 25.4 F75', '110-0215E BK7 pl-cx 25.4 F75', '', ( #61 ) ) ;
#14 = PERSON_AND_ORGANIZATION_ROLE ( 'creator' ) ;
#15 = EDGE_LOOP ( 'NONE', ( #189, #233, #153 ) ) ;
#16 = AXIS2_PLACEMENT_3D ( 'NONE', #87, #188, #110 ) ;
#17 = VERTEX_POINT ( 'NONE', #158 ) ;
#18 = APPROVAL_DATE_TIME ( #114, #134 ) ;
#19 = FACE_OUTER_BOUND ( 'NONE', #167, .T. ) ;
#20 = DIRECTION ( 'NONE',  ( 0.0000000000000000000, -1.000000000000000000, -3.567554706379037700E-016 ) ) ;
#21 = DIRECTION ( 'NONE',  ( 0.0000000000000000000, 0.0000000000000000000, 1.000000000000000000 ) ) ;
#22 = ORIENTED_EDGE ( 'NONE', *, *, #103, .T. ) ;
#23 = CARTESIAN_POINT ( 'NONE',  ( 4.996003610813200500E-016, 2.442490654175340100E-015, 2.131535250979000200 ) ) ;
#24 = EDGE_LOOP ( 'NONE', ( #83, #12, #111, #22, #51 ) ) ;
#25 = DIRECTION ( 'NONE',  ( 1.000000000000000000, 8.881784197001252300E-016, 0.0000000000000000000 ) ) ;
#26 = CARTESIAN_POINT ( 'NONE',  ( 0.0000000000000000000, 0.0000000000000000000, 0.0000000000000000000 ) ) ;
#27 = APPROVAL_STATUS ( 'not_yet_approved' ) ;
#28 = LOCAL_TIME ( 8, 50, 45.00000000000000000, #227 ) ;
#29 = APPLICATION_CONTEXT ( 'configuration controlled 3d designs of mechanical parts and assemblies' ) ;
#30 = APPROVAL_PERSON_ORGANIZATION ( #215, #134, #98 ) ;
#31 = COORDINATED_UNIVERSAL_TIME_OFFSET ( 2, 0, .AHEAD. ) ;
#32 = LINE ( 'NONE', #224, #62 ) ;
#33 = COORDINATED_UNIVERSAL_TIME_OFFSET ( 2, 0, .AHEAD. ) ;
#34 = CC_DESIGN_DATE_AND_TIME_ASSIGNMENT ( #181, #123, ( #93 ) ) ;
#35 = CARTESIAN_POINT ( 'NONE',  ( 4.996003610813200500E-016, 2.442490654175340100E-015, 4.000000000000000000 ) ) ;
#36 = CIRCLE ( 'NONE', #89, 12.69999999999999900 ) ;
#37 = DIRECTION ( 'NONE',  ( 1.000000000000000000, 0.0000000000000000000, 0.0000000000000000000 ) ) ;
#38 = DIRECTION ( 'NONE',  ( -0.0000000000000000000, -0.0000000000000000000, -1.000000000000000000 ) ) ;
#39 = DIRECTION ( 'NONE',  ( 1.000000000000000000, 0.0000000000000000000, 0.0000000000000000000 ) ) ;
#40 = PERSON_AND_ORGANIZATION ( #235, #156 ) ;
#41 = PLANE ( 'NONE',  #68 ) ;
#42 = DIRECTION ( 'NONE',  ( 1.000000000000000000, 0.0000000000000000000, 0.0000000000000000000 ) ) ;
#43 = AXIS2_PLACEMENT_3D ( 'NONE', #228, #212, #121 ) ;
#44 = ORIENTED_EDGE ( 'NONE', *, *, #109, .F. ) ;
#45 = EDGE_CURVE ( 'NONE', #200, #17, #36, .T. ) ;
#46 = APPLICATION_PROTOCOL_DEFINITION ( 'international standard', 'config_control_design', 1994, #122 ) ;
#47 = APPROVAL_ROLE ( '' ) ;
#48 = LOCAL_TIME ( 8, 50, 45.00000000000000000, #107 ) ;
#49 = APPROVAL_STATUS ( 'not_yet_approved' ) ;
#50 = CC_DESIGN_APPROVAL ( #131, ( #185 ) ) ;
#51 = ORIENTED_EDGE ( 'NONE', *, *, #109, .T. ) ;
#52 = CARTESIAN_POINT ( 'NONE',  ( -12.69999999999999900, 3.997792089092478900E-015, 2.131535250979000200 ) ) ;
#53 = AXIS2_PLACEMENT_3D ( 'NONE', #26, #161, #78 ) ;
#54 = CARTESIAN_POINT ( 'NONE',  ( 4.996003610813200500E-016, 2.442490654175340100E-015, 2.131535250979000200 ) ) ;
#55 = EDGE_LOOP ( 'NONE', ( #44, #101 ) ) ;
#56 = CARTESIAN_POINT ( 'NONE',  ( 12.05668669370723700, 12.84663780296892500, 4.218445779793647400 ) ) ;
#57 = CARTESIAN_POINT ( 'NONE',  ( 1.065814103640150000E-014, 12.84663780296892500, 2.182512379530515500 ) ) ;
#58 = CARTESIAN_POINT ( 'NONE',  ( -8.824582899779104000, 4.448607474774875400, -0.01593529082254846100 ) ) ;
#59 = CARTESIAN_POINT ( 'NONE',  ( 8.824582899779086300, -4.448607474774863000, -0.01593529082255669800 ) ) ;
#60 = CARTESIAN_POINT ( 'NONE',  ( -4.443304797185684900, -4.448607474774863800, -0.7557729138377592400 ) ) ;
#61 = MECHANICAL_CONTEXT ( 'NONE', #29, 'mechanical' ) ;
#62 = VECTOR ( 'NONE', #21, 1000.000000000000000 ) ;
#63 = PERSON_AND_ORGANIZATION_ROLE ( 'design_supplier' ) ;
#64 =( LENGTH_UNIT ( ) NAMED_UNIT ( * ) SI_UNIT ( .MILLI., .METRE. ) );
#65 = VECTOR ( 'NONE', #132, 1000.000000000000000 ) ;
#66 = CC_DESIGN_DATE_AND_TIME_ASSIGNMENT ( #187, #198, ( #211 ) ) ;
#67 = AXIS2_PLACEMENT_3D ( 'NONE', #35, #159, #37 ) ;
#68 = AXIS2_PLACEMENT_3D ( 'NONE', #138, #112, #137 ) ;
#69 = CARTESIAN_POINT ( 'NONE',  ( -12.69999999999999900, 3.997792089092478900E-015, 4.000000000000000000 ) ) ;
#70 = CARTESIAN_POINT ( 'NONE',  ( 1.065814103640150000E-014, -12.84663780296891200, 2.182512379530515500 ) ) ;
#71 = PERSON_AND_ORGANIZATION ( #235, #156 ) ;
#72 = CARTESIAN_POINT ( 'NONE',  ( 4.996003610813200500E-016, 2.442490654175340100E-015, 2.131535250979000200 ) ) ;
#73 = ORIENTED_EDGE ( 'NONE', *, *, #81, .T. ) ;
#74 = CARTESIAN_POINT ( 'NONE',  ( 1.734723475976807100E-015, -4.448607474774864700, -0.7557729138377603500 ) ) ;
#75 = MANIFOLD_SOLID_BREP ( 'Imported1', #183 ) ;
#76 = CARTESIAN_POINT ( 'NONE',  ( -12.05668669370725300, -12.84663780296891400, 4.218445779793661600 ) ) ;
#77 = ADVANCED_FACE ( 'NONE', ( #115 ), #80, .T. ) ;
#78 = DIRECTION ( 'NONE',  ( 1.000000000000000000, 0.0000000000000000000, 0.0000000000000000000 ) ) ;
#79 = LOCAL_TIME ( 8, 50, 45.00000000000000000, #33 ) ;
#80 = CYLINDRICAL_SURFACE ( 'NONE', #124, 12.69999999999999900 ) ;
#81 = EDGE_CURVE ( 'NONE', #120, #150, #108, .T. ) ;
#82 = CALENDAR_DATE ( 2018, 21, 12 ) ;
#83 = ORIENTED_EDGE ( 'NONE', *, *, #81, .F. ) ;
#84 = DATE_AND_TIME ( #125, #79 ) ;
#85 = CC_DESIGN_PERSON_AND_ORGANIZATION_ASSIGNMENT ( #8, #169, ( #211 ) ) ;
#86 = ORIENTED_EDGE ( 'NONE', *, *, #2, .T. ) ;
#87 = CARTESIAN_POINT ( 'NONE',  ( 4.996003610813200500E-016, 2.442490654175340100E-015, 2.131535250979000200 ) ) ;
#88 =( BOUNDED_SURFACE ( )  B_SPLINE_SURFACE ( 3, 3, ( 
 ( #70, #205, #160, #155 ),
 ( #133, #117, #59, #113 ),
 ( #143, #92, #196, #210 ),
 ( #57, #7, #140, #56 ) ),
 .UNSPECIFIED., .F., .F., .T. ) 
 B_SPLINE_SURFACE_WITH_KNOTS ( ( 4, 4 ),
 ( 4, 4 ),
 ( 0.0000000000000000000, 1.000000000000000000 ),
 ( 0.0000000000000000000, 1.000000000000000000 ),
 .UNSPECIFIED. ) 
 GEOMETRIC_REPRESENTATION_ITEM ( )  RATIONAL_B_SPLINE_SURFACE ( (
 ( 1.000000000000000000, 0.9906936094606040300, 0.9906936094606040300, 1.000000000000000000),
 ( 0.9625961888683716200, 0.9536378928030283500, 0.9536378928030283500, 0.9625961888683716200),
 ( 0.9625961888683716200, 0.9536378928030283500, 0.9536378928030283500, 0.9625961888683716200),
 ( 1.000000000000000000, 0.9906936094606040300, 0.9906936094606040300, 1.000000000000000000) ) ) 
 REPRESENTATION_ITEM ( '' )  SURFACE ( )  );
#89 = AXIS2_PLACEMENT_3D ( 'NONE', #72, #225, #136 ) ;
#90 = CARTESIAN_POINT ( 'NONE',  ( -4.114079159145791000, 12.84663780296892300, 2.182512379530515500 ) ) ;
#91 = LOCAL_TIME ( 8, 50, 45.00000000000000000, #31 ) ;
#92 = CARTESIAN_POINT ( 'NONE',  ( 4.443304797185685800, 4.448607474774876300, -0.7557729138377575800 ) ) ;
#93 = PRODUCT_DEFINITION ( 'UNKNOWN', '', #185, #139 ) ;
#94 = CARTESIAN_POINT ( 'NONE',  ( 1.734723475976807100E-015, -12.84663780296891200, 2.182512379530515500 ) ) ;
#95 = PERSON_AND_ORGANIZATION ( #235, #156 ) ;
#96 = VERTEX_POINT ( 'NONE', #186 ) ;
#97 = CARTESIAN_POINT ( 'NONE',  ( 4.996003610813200500E-016, 2.442490654175340100E-015, 4.000000000000000000 ) ) ;
#98 = APPROVAL_ROLE ( '' ) ;
#99 = CC_DESIGN_PERSON_AND_ORGANIZATION_ASSIGNMENT ( #71, #11, ( #93 ) ) ;
#100 = PERSON_AND_ORGANIZATION ( #235, #156 ) ;
#101 = ORIENTED_EDGE ( 'NONE', *, *, #230, .F. ) ;
#102 = APPROVAL ( #146, 'UNSPECIFIED' ) ;
#103 = EDGE_CURVE ( 'NONE', #200, #216, #32, .T. ) ;
#104 =( BOUNDED_SURFACE ( )  B_SPLINE_SURFACE ( 3, 3, ( 
 ( #76, #142, #178, #94 ),
 ( #180, #163, #60, #74 ),
 ( #179, #58, #194, #6 ),
 ( #116, #231, #90, #208 ) ),
 .UNSPECIFIED., .F., .F., .F. ) 
 B_SPLINE_SURFACE_WITH_KNOTS ( ( 4, 4 ),
 ( 4, 4 ),
 ( 0.0000000000000000000, 1.000000000000000000 ),
 ( 0.0000000000000000000, 1.000000000000000000 ),
 .UNSPECIFIED. ) 
 GEOMETRIC_REPRESENTATION_ITEM ( )  RATIONAL_B_SPLINE_SURFACE ( (
 ( 1.000000000000000000, 0.9906936094606040300, 0.9906936094606040300, 1.000000000000000000),
 ( 0.9625961888683716200, 0.9536378928030283500, 0.9536378928030283500, 0.9625961888683716200),
 ( 0.9625961888683716200, 0.9536378928030283500, 0.9536378928030283500, 0.9625961888683716200),
 ( 1.000000000000000000, 0.9906936094606040300, 0.9906936094606040300, 1.000000000000000000) ) ) 
 REPRESENTATION_ITEM ( '' )  SURFACE ( )  );
#105 = ORIENTED_EDGE ( 'NONE', *, *, #234, .F. ) ;
#106 = CC_DESIGN_APPROVAL ( #134, ( #93 ) ) ;
#107 = COORDINATED_UNIVERSAL_TIME_OFFSET ( 2, 0, .AHEAD. ) ;
#108 = LINE ( 'NONE', #221, #65 ) ;
#109 = EDGE_CURVE ( 'NONE', #216, #150, #209, .T. ) ;
#110 = DIRECTION ( 'NONE',  ( 1.000000000000000000, 0.0000000000000000000, 0.0000000000000000000 ) ) ;
#111 = ORIENTED_EDGE ( 'NONE', *, *, #45, .F. ) ;
#112 = DIRECTION ( 'NONE',  ( 0.0000000000000000000, 0.0000000000000000000, 1.000000000000000000 ) ) ;
#113 = CARTESIAN_POINT ( 'NONE',  ( 13.02151265252690500, -4.448607474774864700, 1.443084301641298200 ) ) ;
#114 = DATE_AND_TIME ( #220, #197 ) ;
#115 = FACE_OUTER_BOUND ( 'NONE', #24, .T. ) ;
#116 = CARTESIAN_POINT ( 'NONE',  ( -12.05668669370725600, 12.84663780296892300, 4.218445779793661600 ) ) ;
#117 = CARTESIAN_POINT ( 'NONE',  ( 4.443304797185685800, -4.448607474774863000, -0.7557729138377593500 ) ) ;
#118 = APPROVAL_ROLE ( '' ) ;
#119 = CALENDAR_DATE ( 2018, 21, 12 ) ;
#120 = VERTEX_POINT ( 'NONE', #52 ) ;
#121 = DIRECTION ( 'NONE',  ( 1.000000000000000000, 0.0000000000000000000, 0.0000000000000000000 ) ) ;
#122 = APPLICATION_CONTEXT ( 'configuration controlled 3d designs of mechanical parts and assemblies' ) ;
#123 = DATE_TIME_ROLE ( 'creation_date' ) ;
#124 = AXIS2_PLACEMENT_3D ( 'NONE', #54, #202, #5 ) ;
#125 = CALENDAR_DATE ( 2018, 21, 12 ) ;
#126 = ORIENTED_EDGE ( 'NONE', *, *, #103, .F. ) ;
#127 = CC_DESIGN_PERSON_AND_ORGANIZATION_ASSIGNMENT ( #176, #63, ( #185 ) ) ;
#128 = COORDINATED_UNIVERSAL_TIME_OFFSET ( 2, 0, .AHEAD. ) ;
#129 = FACE_OUTER_BOUND ( 'NONE', #9, .T. ) ;
#130 = PRODUCT_DEFINITION_SHAPE ( 'NONE', 'NONE',  #93 ) ;
#131 = APPROVAL ( #27, 'UNSPECIFIED' ) ;
#132 = DIRECTION ( 'NONE',  ( 0.0000000000000000000, 0.0000000000000000000, 1.000000000000000000 ) ) ;
#133 = CARTESIAN_POINT ( 'NONE',  ( 1.065814103640150000E-014, -4.448607474774863800, -0.7557729138377593500 ) ) ;
#134 = APPROVAL ( #49, 'UNSPECIFIED' ) ;
#135 = FACE_OUTER_BOUND ( 'NONE', #55, .T. ) ;
#136 = DIRECTION ( 'NONE',  ( 1.000000000000000000, 0.0000000000000000000, 0.0000000000000000000 ) ) ;
#137 = DIRECTION ( 'NONE',  ( 1.000000000000000000, 0.0000000000000000000, -0.0000000000000000000 ) ) ;
#138 = CARTESIAN_POINT ( 'NONE',  ( 0.0000000000000000000, 26.11199999999999800, 4.000000000000000000 ) ) ;
#139 = DESIGN_CONTEXT ( 'detailed design', #122, 'design' ) ;
#140 = CARTESIAN_POINT ( 'NONE',  ( 8.170727477244073000, 12.84663780296892300, 2.867531905520870300 ) ) ;
#141 = CC_DESIGN_SECURITY_CLASSIFICATION ( #211, ( #185 ) ) ;
#142 = CARTESIAN_POINT ( 'NONE',  ( -8.170727477244080100, -12.84663780296891600, 2.867531905520876100 ) ) ;
#143 = CARTESIAN_POINT ( 'NONE',  ( 1.065814103640150000E-014, 4.448607474774876300, -0.7557729138377576900 ) ) ;
#144 = PERSON_AND_ORGANIZATION ( #235, #156 ) ;
#145 = ORIENTED_EDGE ( 'NONE', *, *, #217, .F. ) ;
#146 = APPROVAL_STATUS ( 'not_yet_approved' ) ;
#147 = PERSON_AND_ORGANIZATION_ROLE ( 'design_owner' ) ;
#148 = CC_DESIGN_PERSON_AND_ORGANIZATION_ASSIGNMENT ( #40, #14, ( #185 ) ) ;
#149 = APPROVAL_DATE_TIME ( #84, #131 ) ;
#150 = VERTEX_POINT ( 'NONE', #69 ) ;
#151 = CC_DESIGN_APPROVAL ( #102, ( #211 ) ) ;
#152 =( GEOMETRIC_REPRESENTATION_CONTEXT ( 3 ) GLOBAL_UNCERTAINTY_ASSIGNED_CONTEXT ( ( #201 ) ) GLOBAL_UNIT_ASSIGNED_CONTEXT ( ( #64, #213, #182 ) ) REPRESENTATION_CONTEXT ( 'NONE', 'WORKASPACE' ) );
#153 = ORIENTED_EDGE ( 'NONE', *, *, #217, .T. ) ;
#154 = EDGE_CURVE ( 'NONE', #17, #96, #223, .T. ) ;
#155 = CARTESIAN_POINT ( 'NONE',  ( 12.05668669370723300, -12.84663780296891200, 4.218445779793647400 ) ) ;
#156 = ORGANIZATION ( 'UNSPECIFIED', 'UNSPECIFIED', '' ) ;
#157 = CIRCLE ( 'NONE', #16, 12.69999999999999900 ) ;
#158 = CARTESIAN_POINT ( 'NONE',  ( 1.065814103640150000E-014, -12.69999999999999600, 2.131535250978999300 ) ) ;
#159 = DIRECTION ( 'NONE',  ( -0.0000000000000000000, -0.0000000000000000000, -1.000000000000000000 ) ) ;
#160 = CARTESIAN_POINT ( 'NONE',  ( 8.170727477244073000, -12.84663780296891400, 2.867531905520870800 ) ) ;
#161 = DIRECTION ( 'NONE',  ( 0.0000000000000000000, 0.0000000000000000000, 1.000000000000000000 ) ) ;
#162 = CARTESIAN_POINT ( 'NONE',  ( 4.996003610813200500E-016, 2.442490654175340100E-015, 2.131535250979000200 ) ) ;
#163 = CARTESIAN_POINT ( 'NONE',  ( -8.824582899779104000, -4.448607474774863800, -0.01593529082254976200 ) ) ;
#164 = ADVANCED_BREP_SHAPE_REPRESENTATION ( '110-0215E BK7 pl-cx 25.4 F75', ( #75, #53 ), #152 ) ;
#165 = PRODUCT_RELATED_PRODUCT_CATEGORY ( 'detail', '', ( #13 ) ) ;
#166 = APPLICATION_PROTOCOL_DEFINITION ( 'international standard', 'config_control_design', 1994, #29 ) ;
#167 = EDGE_LOOP ( 'NONE', ( #105, #73, #184, #126, #145 ) ) ;
#168 = SECURITY_CLASSIFICATION_LEVEL ( 'unclassified' ) ;
#169 = PERSON_AND_ORGANIZATION_ROLE ( 'classification_officer' ) ;
#170 = AXIS2_PLACEMENT_3D ( 'NONE', #23, #226, #42 ) ;
#171 = CYLINDRICAL_SURFACE ( 'NONE', #170, 12.69999999999999900 ) ;
#172 = CIRCLE ( 'NONE', #204, 12.69999999999999900 ) ;
#173 = APPROVAL_PERSON_ORGANIZATION ( #144, #102, #47 ) ;
#174 = DIRECTION ( 'NONE',  ( 1.000000000000000000, 0.0000000000000000000, 0.0000000000000000000 ) ) ;
#175 = ORIENTED_EDGE ( 'NONE', *, *, #154, .F. ) ;
#176 = PERSON_AND_ORGANIZATION ( #235, #156 ) ;
#177 = CIRCLE ( 'NONE', #43, 12.69999999999999900 ) ;
#178 = CARTESIAN_POINT ( 'NONE',  ( -4.114079159145788400, -12.84663780296891400, 2.182512379530516400 ) ) ;
#179 = CARTESIAN_POINT ( 'NONE',  ( -13.02151265252693000, 4.448607474774874500, 1.443084301641315100 ) ) ;
#180 = CARTESIAN_POINT ( 'NONE',  ( -13.02151265252693000, -4.448607474774865600, 1.443084301641313700 ) ) ;
#181 = DATE_AND_TIME ( #218, #48 ) ;
#182 =( NAMED_UNIT ( * ) SI_UNIT ( $, .STERADIAN. ) SOLID_ANGLE_UNIT ( ) );
#183 = CLOSED_SHELL ( 'NONE', ( #190, #193, #229, #77, #207 ) ) ;
#184 = ORIENTED_EDGE ( 'NONE', *, *, #230, .T. ) ;
#185 = PRODUCT_DEFINITION_FORMATION_WITH_SPECIFIED_SOURCE ( 'ANY', '', #13, .NOT_KNOWN. ) ;
#186 = CARTESIAN_POINT ( 'NONE',  ( 1.065814103640150000E-014, 12.70000000000000600, 2.131535250978999300 ) ) ;
#187 = DATE_AND_TIME ( #119, #28 ) ;
#188 = DIRECTION ( 'NONE',  ( -0.0000000000000000000, -0.0000000000000000000, -1.000000000000000000 ) ) ;
#189 = ORIENTED_EDGE ( 'NONE', *, *, #45, .T. ) ;
#190 = ADVANCED_FACE ( 'NONE', ( #206 ), #88, .T. ) ;
#191 = DIRECTION ( 'NONE',  ( -0.0000000000000000000, -0.0000000000000000000, -1.000000000000000000 ) ) ;
#192 = APPROVAL_DATE_TIME ( #1, #102 ) ;
#193 = ADVANCED_FACE ( 'NONE', ( #19 ), #171, .T. ) ;
#194 = CARTESIAN_POINT ( 'NONE',  ( -4.443304797185687600, 4.448607474774875400, -0.7557729138377581300 ) ) ;
#195 = CARTESIAN_POINT ( 'NONE',  ( 12.69999999999999900, 2.442490654175340100E-015, 4.000000000000000000 ) ) ;
#196 = CARTESIAN_POINT ( 'NONE',  ( 8.824582899779089800, 4.448607474774876300, -0.01593529082255496600 ) ) ;
#197 = LOCAL_TIME ( 8, 50, 45.00000000000000000, #128 ) ;
#198 = DATE_TIME_ROLE ( 'classification_date' ) ;
#199 = AXIS2_PLACEMENT_3D ( 'NONE', #162, #38, #25 ) ;
#200 = VERTEX_POINT ( 'NONE', #10 ) ;
#201 = UNCERTAINTY_MEASURE_WITH_UNIT (LENGTH_MEASURE( 1.000000000000000100E-005 ), #64, 'distance_accuracy_value', 'NONE');
#202 = DIRECTION ( 'NONE',  ( 0.0000000000000000000, 0.0000000000000000000, 1.000000000000000000 ) ) ;
#203 = SHAPE_DEFINITION_REPRESENTATION ( #130, #164 ) ;
#204 = AXIS2_PLACEMENT_3D ( 'NONE', #97, #191, #39 ) ;
#205 = CARTESIAN_POINT ( 'NONE',  ( 4.114079159145791900, -12.84663780296891400, 2.182512379530515900 ) ) ;
#206 = FACE_OUTER_BOUND ( 'NONE', #15, .T. ) ;
#207 = ADVANCED_FACE ( 'NONE', ( #135 ), #41, .T. ) ;
#208 = CARTESIAN_POINT ( 'NONE',  ( 1.734723475976807100E-015, 12.84663780296892500, 2.182512379530514600 ) ) ;
#209 = CIRCLE ( 'NONE', #67, 12.69999999999999900 ) ;
#210 = CARTESIAN_POINT ( 'NONE',  ( 13.02151265252690500, 4.448607474774875400, 1.443084301641300200 ) ) ;
#211 = SECURITY_CLASSIFICATION ( '', '', #168 ) ;
#212 = DIRECTION ( 'NONE',  ( -0.0000000000000000000, -0.0000000000000000000, -1.000000000000000000 ) ) ;
#213 =( NAMED_UNIT ( * ) PLANE_ANGLE_UNIT ( ) SI_UNIT ( $, .RADIAN. ) );
#214 = ORIENTED_EDGE ( 'NONE', *, *, #234, .T. ) ;
#215 = PERSON_AND_ORGANIZATION ( #235, #156 ) ;
#216 = VERTEX_POINT ( 'NONE', #195 ) ;
#217 = EDGE_CURVE ( 'NONE', #96, #200, #4, .T. ) ;
#218 = CALENDAR_DATE ( 2018, 21, 12 ) ;
#219 = CC_DESIGN_PERSON_AND_ORGANIZATION_ASSIGNMENT ( #100, #147, ( #13 ) ) ;
#220 = CALENDAR_DATE ( 2018, 21, 12 ) ;
#221 = CARTESIAN_POINT ( 'NONE',  ( -12.69999999999999900, 3.997792089092478900E-015, 2.131535250979000200 ) ) ;
#222 = APPROVAL_PERSON_ORGANIZATION ( #95, #131, #118 ) ;
#223 = CIRCLE ( 'NONE', #232, 38.89999999999999900 ) ;
#224 = CARTESIAN_POINT ( 'NONE',  ( 12.69999999999999900, 2.442490654175340100E-015, 2.131535250979000200 ) ) ;
#225 = DIRECTION ( 'NONE',  ( -0.0000000000000000000, -0.0000000000000000000, -1.000000000000000000 ) ) ;
#226 = DIRECTION ( 'NONE',  ( 0.0000000000000000000, 0.0000000000000000000, 1.000000000000000000 ) ) ;
#227 = COORDINATED_UNIVERSAL_TIME_OFFSET ( 2, 0, .AHEAD. ) ;
#228 = CARTESIAN_POINT ( 'NONE',  ( 4.996003610813200500E-016, 2.442490654175340100E-015, 2.131535250979000200 ) ) ;
#229 = ADVANCED_FACE ( 'NONE', ( #129 ), #104, .T. ) ;
#230 = EDGE_CURVE ( 'NONE', #150, #216, #172, .T. ) ;
#231 = CARTESIAN_POINT ( 'NONE',  ( -8.170727477244081900, 12.84663780296892100, 2.867531905520876100 ) ) ;
#232 = AXIS2_PLACEMENT_3D ( 'NONE', #3, #174, #20 ) ;
#233 = ORIENTED_EDGE ( 'NONE', *, *, #154, .T. ) ;
#234 = EDGE_CURVE ( 'NONE', #120, #96, #177, .T. ) ;
#235 = PERSON ( 'UNSPECIFIED', 'UNSPECIFIED', 'UNSPECIFIED', ('UNSPECIFIED'), ('UNSPECIFIED'), ('UNSPECIFIED') ) ;
ENDSEC;
END-ISO-10303-21;
