ISO-10303-21;
HEADER;
FILE_DESCRIPTION (( 'STEP AP203' ),
    '1' );
FILE_NAME ('110-0209E BK7 pl-cx 25.4 F50.STEP',
    '2018-12-21T06:51:09',
    ( '' ),
    ( '' ),
    'SwSTEP 2.0',
    'SolidWorks 2017',
    '' );
FILE_SCHEMA (( 'CONFIG_CONTROL_DESIGN' ));
ENDSEC;

DATA;
#1 = CARTESIAN_POINT ( 'NONE',  ( -6.938893903907228400E-015, -12.83863644179774300, 3.398460932447598700 ) ) ;
#2 = EDGE_CURVE ( 'NONE', #104, #168, #71, .T. ) ;
#3 = CARTESIAN_POINT ( 'NONE',  ( 7.692644159805063900, 12.83863644179776000, 4.393367778717699700 ) ) ;
#4 = APPLICATION_PROTOCOL_DEFINITION ( 'international standard', 'config_control_design', 1994, #64 ) ;
#5 =( LENGTH_UNIT ( ) NAMED_UNIT ( * ) SI_UNIT ( .MILLI., .METRE. ) );
#6 = CARTESIAN_POINT ( 'NONE',  ( 11.09707646914856100, 12.83863644179776400, 6.317710063438550300 ) ) ;
#7 = APPLICATION_CONTEXT ( 'configuration controlled 3d designs of mechanical parts and assemblies' ) ;
#8 = APPROVAL_DATE_TIME ( #163, #169 ) ;
#9 = CC_DESIGN_SECURITY_CLASSIFICATION ( #133, ( #10 ) ) ;
#10 = PRODUCT_DEFINITION_FORMATION_WITH_SPECIFIED_SOURCE ( 'ANY', '', #175, .NOT_KNOWN. ) ;
#11 = DIRECTION ( 'NONE',  ( -0.0000000000000000000, -0.0000000000000000000, -1.000000000000000000 ) ) ;
#12 = LINE ( 'NONE', #32, #108 ) ;
#13 = UNCERTAINTY_MEASURE_WITH_UNIT (LENGTH_MEASURE( 1.000000000000000100E-005 ), #5, 'distance_accuracy_value', 'NONE');
#14 = CIRCLE ( 'NONE', #84, 12.69999999999999900 ) ;
#15 = CARTESIAN_POINT ( 'NONE',  ( -4.715219226398936300, -4.688925862313165100, -1.241185653200329100 ) ) ;
#16 = CIRCLE ( 'NONE', #186, 12.69999999999999900 ) ;
#17 = CARTESIAN_POINT ( 'NONE',  ( 4.996003610813200500E-016, 2.442490654175340100E-015, 3.320097216293660400 ) ) ;
#18 = CARTESIAN_POINT ( 'NONE',  ( -6.938893903907228400E-015, 4.688925862313182000, -1.241185653200333400 ) ) ;
#19 = CC_DESIGN_DATE_AND_TIME_ASSIGNMENT ( #167, #24, ( #133 ) ) ;
#20 = DIRECTION ( 'NONE',  ( 0.0000000000000000000, -1.000000000000000000, 2.673947554492188900E-016 ) ) ;
#21 = COORDINATED_UNIVERSAL_TIME_OFFSET ( 2, 0, .AHEAD. ) ;
#22 = FACE_OUTER_BOUND ( 'NONE', #195, .T. ) ;
#23 = PERSON_AND_ORGANIZATION_ROLE ( 'classification_officer' ) ;
#24 = DATE_TIME_ROLE ( 'classification_date' ) ;
#25 = COORDINATED_UNIVERSAL_TIME_OFFSET ( 2, 0, .AHEAD. ) ;
#26 = APPROVAL_STATUS ( 'not_yet_approved' ) ;
#27 = AXIS2_PLACEMENT_3D ( 'NONE', #198, #179, #129 ) ;
#28 = PERSON_AND_ORGANIZATION ( #107, #205 ) ;
#29 = ORIENTED_EDGE ( 'NONE', *, *, #109, .T. ) ;
#30 = DIRECTION ( 'NONE',  ( -0.0000000000000000000, -0.0000000000000000000, -1.000000000000000000 ) ) ;
#31 = COORDINATED_UNIVERSAL_TIME_OFFSET ( 2, 0, .AHEAD. ) ;
#32 = CARTESIAN_POINT ( 'NONE',  ( 12.69999999999999900, 2.442490654175340100E-015, 3.320097216293660400 ) ) ;
#33 = MANIFOLD_SOLID_BREP ( 'Imported1', #67 ) ;
#34 = LOCAL_TIME ( 8, 51, 8.000000000000000000, #235 ) ;
#35 = EDGE_LOOP ( 'NONE', ( #49, #225, #29 ) ) ;
#36 = PERSON_AND_ORGANIZATION ( #107, #205 ) ;
#37 = CARTESIAN_POINT ( 'NONE',  ( -12.69999999999999900, 3.997792089092478900E-015, 3.320097216293660400 ) ) ;
#38 = CARTESIAN_POINT ( 'NONE',  ( 1.776356839400250100E-015, 12.70000000000000300, 3.320097216293660800 ) ) ;
#39 = EDGE_LOOP ( 'NONE', ( #91, #157, #102 ) ) ;
#40 = CARTESIAN_POINT ( 'NONE',  ( -11.09707646914857400, 12.83863644179776200, 6.317710063438564600 ) ) ;
#41 = DIRECTION ( 'NONE',  ( 0.0000000000000000000, 0.0000000000000000000, 1.000000000000000000 ) ) ;
#42 = APPROVAL_ROLE ( '' ) ;
#43 = APPROVAL_ROLE ( '' ) ;
#44 = DATE_AND_TIME ( #158, #34 ) ;
#45 = CC_DESIGN_APPROVAL ( #159, ( #197 ) ) ;
#46 = LOCAL_TIME ( 8, 51, 8.000000000000000000, #223 ) ;
#47 = ORIENTED_EDGE ( 'NONE', *, *, #59, .T. ) ;
#48 = AXIS2_PLACEMENT_3D ( 'NONE', #170, #153, #20 ) ;
#49 = ORIENTED_EDGE ( 'NONE', *, *, #70, .T. ) ;
#50 = DIRECTION ( 'NONE',  ( 1.000000000000000000, 0.0000000000000000000, 0.0000000000000000000 ) ) ;
#51 =( BOUNDED_SURFACE ( )  B_SPLINE_SURFACE ( 3, 3, ( 
 ( #219, #174, #144, #1 ),
 ( #130, #77, #15, #147 ),
 ( #93, #112, #215, #18 ),
 ( #40, #150, #233, #89 ) ),
 .UNSPECIFIED., .F., .F., .F. ) 
 B_SPLINE_SURFACE_WITH_KNOTS ( ( 4, 4 ),
 ( 4, 4 ),
 ( 0.0000000000000000000, 1.000000000000000000 ),
 ( 0.0000000000000000000, 1.000000000000000000 ),
 .UNSPECIFIED. ) 
 GEOMETRIC_REPRESENTATION_ITEM ( )  RATIONAL_B_SPLINE_SURFACE ( (
 ( 1.000000000000000000, 0.9780644763997014000, 0.9780644763997014000, 1.000000000000000000),
 ( 0.9126920762376983200, 0.8926716976595807700, 0.8926716976595807700, 0.9126920762376983200),
 ( 0.9126920762376983200, 0.8926716976595807700, 0.8926716976595807700, 0.9126920762376983200),
 ( 1.000000000000000000, 0.9780644763997014000, 0.9780644763997014000, 1.000000000000000000) ) ) 
 REPRESENTATION_ITEM ( '' )  SURFACE ( )  );
#52 = PERSON_AND_ORGANIZATION ( #107, #205 ) ;
#53 = DIRECTION ( 'NONE',  ( -0.0000000000000000000, -0.0000000000000000000, -1.000000000000000000 ) ) ;
#54 = CC_DESIGN_PERSON_AND_ORGANIZATION_ASSIGNMENT ( #183, #23, ( #133 ) ) ;
#55 = DIRECTION ( 'NONE',  ( 0.0000000000000000000, 0.0000000000000000000, 1.000000000000000000 ) ) ;
#56 = CARTESIAN_POINT ( 'NONE',  ( 1.776356839400250100E-015, -4.688925862313163300, -1.241185653200334900 ) ) ;
#57 = CARTESIAN_POINT ( 'NONE',  ( 13.38013629919088700, -4.688925862313162400, 2.278655935036511900 ) ) ;
#58 = APPROVAL_DATE_TIME ( #82, #76 ) ;
#59 = EDGE_CURVE ( 'NONE', #184, #232, #12, .T. ) ;
#60 = DIRECTION ( 'NONE',  ( -0.0000000000000000000, -0.0000000000000000000, -1.000000000000000000 ) ) ;
#61 = APPROVAL_ROLE ( '' ) ;
#62 = CARTESIAN_POINT ( 'NONE',  ( 3.910658841891808900, 12.83863644179775900, 3.398460932447590300 ) ) ;
#63 = CC_DESIGN_PERSON_AND_ORGANIZATION_ASSIGNMENT ( #194, #81, ( #175 ) ) ;
#64 = APPLICATION_CONTEXT ( 'configuration controlled 3d designs of mechanical parts and assemblies' ) ;
#65 =( NAMED_UNIT ( * ) PLANE_ANGLE_UNIT ( ) SI_UNIT ( $, .RADIAN. ) );
#66 = APPROVAL_PERSON_ORGANIZATION ( #36, #159, #43 ) ;
#67 = CLOSED_SHELL ( 'NONE', ( #207, #141, #145, #124, #142 ) ) ;
#68 = AXIS2_PLACEMENT_3D ( 'NONE', #203, #55, #98 ) ;
#69 = CIRCLE ( 'NONE', #143, 12.69999999999999900 ) ;
#70 = EDGE_CURVE ( 'NONE', #184, #120, #16, .T. ) ;
#71 = CIRCLE ( 'NONE', #106, 12.69999999999999900 ) ;
#72 = EDGE_CURVE ( 'NONE', #229, #232, #14, .T. ) ;
#73 = DIRECTION ( 'NONE',  ( 1.000000000000000000, 0.0000000000000000000, 0.0000000000000000000 ) ) ;
#74 = CIRCLE ( 'NONE', #48, 25.94999999999999600 ) ;
#75 = ORIENTED_EDGE ( 'NONE', *, *, #85, .T. ) ;
#76 = APPROVAL ( #166, 'UNSPECIFIED' ) ;
#77 = CARTESIAN_POINT ( 'NONE',  ( -9.275292248865980600, -4.688925862313165100, -0.04159139564055905300 ) ) ;
#78 = PLANE ( 'NONE',  #68 ) ;
#79 = DIRECTION ( 'NONE',  ( 1.000000000000000000, 0.0000000000000000000, 0.0000000000000000000 ) ) ;
#80 = CALENDAR_DATE ( 2018, 21, 12 ) ;
#81 = PERSON_AND_ORGANIZATION_ROLE ( 'design_owner' ) ;
#82 = DATE_AND_TIME ( #226, #228 ) ;
#83 = CARTESIAN_POINT ( 'NONE',  ( 0.0000000000000000000, 0.0000000000000000000, 0.0000000000000000000 ) ) ;
#84 = AXIS2_PLACEMENT_3D ( 'NONE', #140, #30, #50 ) ;
#85 = EDGE_CURVE ( 'NONE', #232, #229, #69, .T. ) ;
#86 = ADVANCED_BREP_SHAPE_REPRESENTATION ( '110-0209E BK7 pl-cx 25.4 F50', ( #33, #126 ), #151 ) ;
#87 = CC_DESIGN_APPROVAL ( #76, ( #10 ) ) ;
#88 = CARTESIAN_POINT ( 'NONE',  ( 4.996003610813200500E-016, 2.442490654175340100E-015, 3.320097216293660400 ) ) ;
#89 = CARTESIAN_POINT ( 'NONE',  ( -6.938893903907228400E-015, 12.83863644179776200, 3.398460932447594300 ) ) ;
#90 = LOCAL_TIME ( 8, 51, 8.000000000000000000, #25 ) ;
#91 = ORIENTED_EDGE ( 'NONE', *, *, #224, .F. ) ;
#92 = DATE_AND_TIME ( #176, #46 ) ;
#93 = CARTESIAN_POINT ( 'NONE',  ( -13.38013629919090300, 4.688925862313182900, 2.278655935036523000 ) ) ;
#94 = AXIS2_PLACEMENT_3D ( 'NONE', #17, #60, #182 ) ;
#95 = DIRECTION ( 'NONE',  ( 0.0000000000000000000, 0.0000000000000000000, 1.000000000000000000 ) ) ;
#96 = FACE_OUTER_BOUND ( 'NONE', #39, .T. ) ;
#97 = ORIENTED_EDGE ( 'NONE', *, *, #105, .F. ) ;
#98 = DIRECTION ( 'NONE',  ( 1.000000000000000000, 0.0000000000000000000, -0.0000000000000000000 ) ) ;
#99 = PERSON_AND_ORGANIZATION_ROLE ( 'creator' ) ;
#100 = CARTESIAN_POINT ( 'NONE',  ( 1.776356839400250100E-015, 12.83863644179776200, 3.398460932447590300 ) ) ;
#101 = CC_DESIGN_PERSON_AND_ORGANIZATION_ASSIGNMENT ( #52, #99, ( #10 ) ) ;
#102 = ORIENTED_EDGE ( 'NONE', *, *, #2, .T. ) ;
#103 = DIRECTION ( 'NONE',  ( 1.000000000000000000, 0.0000000000000000000, 0.0000000000000000000 ) ) ;
#104 = VERTEX_POINT ( 'NONE', #192 ) ;
#105 = EDGE_CURVE ( 'NONE', #120, #104, #221, .T. ) ;
#106 = AXIS2_PLACEMENT_3D ( 'NONE', #208, #227, #210 ) ;
#107 = PERSON ( 'UNSPECIFIED', 'UNSPECIFIED', 'UNSPECIFIED', ('UNSPECIFIED'), ('UNSPECIFIED'), ('UNSPECIFIED') ) ;
#108 = VECTOR ( 'NONE', #139, 1000.000000000000000 ) ;
#109 = EDGE_CURVE ( 'NONE', #168, #184, #155, .T. ) ;
#110 = CC_DESIGN_PERSON_AND_ORGANIZATION_ASSIGNMENT ( #137, #187, ( #197 ) ) ;
#111 = CARTESIAN_POINT ( 'NONE',  ( 11.09707646914856500, -12.83863644179774100, 6.317710063438554800 ) ) ;
#112 = CARTESIAN_POINT ( 'NONE',  ( -9.275292248865980600, 4.688925862313182000, -0.04159139564056252300 ) ) ;
#113 = CYLINDRICAL_SURFACE ( 'NONE', #27, 12.69999999999999900 ) ;
#114 = CARTESIAN_POINT ( 'NONE',  ( 4.996003610813200500E-016, 2.442490654175340100E-015, 3.320097216293660400 ) ) ;
#115 = CARTESIAN_POINT ( 'NONE',  ( 12.69999999999999900, 2.442490654175340100E-015, 3.320097216293660400 ) ) ;
#116 = ORIENTED_EDGE ( 'NONE', *, *, #59, .F. ) ;
#117 = MECHANICAL_CONTEXT ( 'NONE', #64, 'mechanical' ) ;
#118 =( NAMED_UNIT ( * ) SI_UNIT ( $, .STERADIAN. ) SOLID_ANGLE_UNIT ( ) );
#119 = FACE_OUTER_BOUND ( 'NONE', #35, .T. ) ;
#120 = VERTEX_POINT ( 'NONE', #172 ) ;
#121 = AXIS2_PLACEMENT_3D ( 'NONE', #114, #95, #218 ) ;
#122 = VECTOR ( 'NONE', #162, 1000.000000000000000 ) ;
#123 = CC_DESIGN_PERSON_AND_ORGANIZATION_ASSIGNMENT ( #178, #222, ( #10 ) ) ;
#124 = ADVANCED_FACE ( 'NONE', ( #204 ), #173, .T. ) ;
#125 = ORIENTED_EDGE ( 'NONE', *, *, #193, .F. ) ;
#126 = AXIS2_PLACEMENT_3D ( 'NONE', #83, #41, #103 ) ;
#127 = CARTESIAN_POINT ( 'NONE',  ( 3.910658841891808900, -12.83863644179774300, 3.398460932447593400 ) ) ;
#128 = CARTESIAN_POINT ( 'NONE',  ( 9.275292248865966400, -4.688925862313165100, -0.04159139564056860100 ) ) ;
#129 = DIRECTION ( 'NONE',  ( 1.000000000000000000, 0.0000000000000000000, 0.0000000000000000000 ) ) ;
#130 = CARTESIAN_POINT ( 'NONE',  ( -13.38013629919090300, -4.688925862313163300, 2.278655935036526500 ) ) ;
#131 = ORIENTED_EDGE ( 'NONE', *, *, #85, .F. ) ;
#132 = SECURITY_CLASSIFICATION_LEVEL ( 'unclassified' ) ;
#133 = SECURITY_CLASSIFICATION ( '', '', #132 ) ;
#134 = LOCAL_TIME ( 8, 51, 8.000000000000000000, #21 ) ;
#135 = CARTESIAN_POINT ( 'NONE',  ( 12.69999999999999900, 2.442490654175340100E-015, 5.000000000000000000 ) ) ;
#136 = APPLICATION_PROTOCOL_DEFINITION ( 'international standard', 'config_control_design', 1994, #7 ) ;
#137 = PERSON_AND_ORGANIZATION ( #107, #205 ) ;
#138 = FACE_OUTER_BOUND ( 'NONE', #177, .T. ) ;
#139 = DIRECTION ( 'NONE',  ( 0.0000000000000000000, 0.0000000000000000000, 1.000000000000000000 ) ) ;
#140 = CARTESIAN_POINT ( 'NONE',  ( 4.996003610813200500E-016, 2.442490654175340100E-015, 5.000000000000000000 ) ) ;
#141 = ADVANCED_FACE ( 'NONE', ( #22 ), #113, .T. ) ;
#142 = ADVANCED_FACE ( 'NONE', ( #138 ), #78, .T. ) ;
#143 = AXIS2_PLACEMENT_3D ( 'NONE', #180, #53, #79 ) ;
#144 = CARTESIAN_POINT ( 'NONE',  ( -3.910658841891817800, -12.83863644179774300, 3.398460932447600100 ) ) ;
#145 = ADVANCED_FACE ( 'NONE', ( #96 ), #51, .T. ) ;
#146 = ORIENTED_EDGE ( 'NONE', *, *, #2, .F. ) ;
#147 = CARTESIAN_POINT ( 'NONE',  ( -8.673617379884035500E-015, -4.688925862313164200, -1.241185653200330700 ) ) ;
#148 = PERSON_AND_ORGANIZATION ( #107, #205 ) ;
#149 = CARTESIAN_POINT ( 'NONE',  ( 13.38013629919088700, 4.688925862313183800, 2.278655935036508300 ) ) ;
#150 = CARTESIAN_POINT ( 'NONE',  ( -7.692644159805072800, 12.83863644179775900, 4.393367778717709400 ) ) ;
#151 =( GEOMETRIC_REPRESENTATION_CONTEXT ( 3 ) GLOBAL_UNCERTAINTY_ASSIGNED_CONTEXT ( ( #13 ) ) GLOBAL_UNIT_ASSIGNED_CONTEXT ( ( #5, #65, #118 ) ) REPRESENTATION_CONTEXT ( 'NONE', 'WORKASPACE' ) );
#152 = APPROVAL_STATUS ( 'not_yet_approved' ) ;
#153 = DIRECTION ( 'NONE',  ( 1.000000000000000000, 0.0000000000000000000, 0.0000000000000000000 ) ) ;
#154 = DATE_TIME_ROLE ( 'creation_date' ) ;
#155 = CIRCLE ( 'NONE', #214, 12.69999999999999900 ) ;
#156 = DESIGN_CONTEXT ( 'detailed design', #7, 'design' ) ;
#157 = ORIENTED_EDGE ( 'NONE', *, *, #105, .T. ) ;
#158 = CALENDAR_DATE ( 2018, 21, 12 ) ;
#159 = APPROVAL ( #26, 'UNSPECIFIED' ) ;
#160 = PRODUCT_RELATED_PRODUCT_CATEGORY ( 'detail', '', ( #175 ) ) ;
#161 = CARTESIAN_POINT ( 'NONE',  ( 1.776356839400250100E-015, -12.83863644179774300, 3.398460932447593800 ) ) ;
#162 = DIRECTION ( 'NONE',  ( 0.0000000000000000000, 0.0000000000000000000, 1.000000000000000000 ) ) ;
#163 = DATE_AND_TIME ( #211, #134 ) ;
#164 = ORIENTED_EDGE ( 'NONE', *, *, #72, .F. ) ;
#165 = CARTESIAN_POINT ( 'NONE',  ( 4.715219226398923900, -4.688925862313165100, -1.241185653200334500 ) ) ;
#166 = APPROVAL_STATUS ( 'not_yet_approved' ) ;
#167 = DATE_AND_TIME ( #80, #90 ) ;
#168 = VERTEX_POINT ( 'NONE', #38 ) ;
#169 = APPROVAL ( #152, 'UNSPECIFIED' ) ;
#170 = CARTESIAN_POINT ( 'NONE',  ( 1.776356839400250100E-015, 8.881784197001250700E-015, 25.94999999999999900 ) ) ;
#171 = APPROVAL_DATE_TIME ( #44, #159 ) ;
#172 = CARTESIAN_POINT ( 'NONE',  ( 1.776356839400250100E-015, -12.69999999999999200, 3.320097216293660800 ) ) ;
#173 = CYLINDRICAL_SURFACE ( 'NONE', #121, 12.69999999999999900 ) ;
#174 = CARTESIAN_POINT ( 'NONE',  ( -7.692644159805074500, -12.83863644179774300, 4.393367778717713000 ) ) ;
#175 = PRODUCT ( '110-0209E BK7 pl-cx 25.4 F50', '110-0209E BK7 pl-cx 25.4 F50', '', ( #117 ) ) ;
#176 = CALENDAR_DATE ( 2018, 21, 12 ) ;
#177 = EDGE_LOOP ( 'NONE', ( #131, #164 ) ) ;
#178 = PERSON_AND_ORGANIZATION ( #107, #205 ) ;
#179 = DIRECTION ( 'NONE',  ( 0.0000000000000000000, 0.0000000000000000000, 1.000000000000000000 ) ) ;
#180 = CARTESIAN_POINT ( 'NONE',  ( 4.996003610813200500E-016, 2.442490654175340100E-015, 5.000000000000000000 ) ) ;
#181 = CARTESIAN_POINT ( 'NONE',  ( 1.776356839400250100E-015, 4.688925862313182900, -1.241185653200338000 ) ) ;
#182 = DIRECTION ( 'NONE',  ( 1.000000000000000000, 0.0000000000000000000, 0.0000000000000000000 ) ) ;
#183 = PERSON_AND_ORGANIZATION ( #107, #205 ) ;
#184 = VERTEX_POINT ( 'NONE', #115 ) ;
#185 = CARTESIAN_POINT ( 'NONE',  ( -12.69999999999999900, 3.997792089092478900E-015, 5.000000000000000000 ) ) ;
#186 = AXIS2_PLACEMENT_3D ( 'NONE', #88, #11, #209 ) ;
#187 = PERSON_AND_ORGANIZATION_ROLE ( 'creator' ) ;
#188 = LINE ( 'NONE', #37, #122 ) ;
#189 = ORIENTED_EDGE ( 'NONE', *, *, #109, .F. ) ;
#190 = PRODUCT_DEFINITION_SHAPE ( 'NONE', 'NONE',  #197 ) ;
#191 = ORIENTED_EDGE ( 'NONE', *, *, #70, .F. ) ;
#192 = CARTESIAN_POINT ( 'NONE',  ( -12.69999999999999900, 3.997792089092478900E-015, 3.320097216293660400 ) ) ;
#193 = EDGE_CURVE ( 'NONE', #104, #229, #188, .T. ) ;
#194 = PERSON_AND_ORGANIZATION ( #107, #205 ) ;
#195 = EDGE_LOOP ( 'NONE', ( #146, #201, #206, #116, #189 ) ) ;
#196 = DIRECTION ( 'NONE',  ( -0.0000000000000000000, -0.0000000000000000000, -1.000000000000000000 ) ) ;
#197 = PRODUCT_DEFINITION ( 'UNKNOWN', '', #10, #156 ) ;
#198 = CARTESIAN_POINT ( 'NONE',  ( 4.996003610813200500E-016, 2.442490654175340100E-015, 3.320097216293660400 ) ) ;
#199 = CARTESIAN_POINT ( 'NONE',  ( 4.996003610813200500E-016, 2.442490654175340100E-015, 3.320097216293660400 ) ) ;
#200 = SHAPE_DEFINITION_REPRESENTATION ( #190, #86 ) ;
#201 = ORIENTED_EDGE ( 'NONE', *, *, #193, .T. ) ;
#202 = CARTESIAN_POINT ( 'NONE',  ( 4.715219226398926500, 4.688925862313182900, -1.241185653200338200 ) ) ;
#203 = CARTESIAN_POINT ( 'NONE',  ( 0.0000000000000000000, 26.11199999999999800, 5.000000000000000000 ) ) ;
#204 = FACE_OUTER_BOUND ( 'NONE', #212, .T. ) ;
#205 = ORGANIZATION ( 'UNSPECIFIED', 'UNSPECIFIED', '' ) ;
#206 = ORIENTED_EDGE ( 'NONE', *, *, #72, .T. ) ;
#207 = ADVANCED_FACE ( 'NONE', ( #119 ), #216, .T. ) ;
#208 = CARTESIAN_POINT ( 'NONE',  ( 4.996003610813200500E-016, 2.442490654175340100E-015, 3.320097216293660400 ) ) ;
#209 = DIRECTION ( 'NONE',  ( 1.000000000000000000, 0.0000000000000000000, 0.0000000000000000000 ) ) ;
#210 = DIRECTION ( 'NONE',  ( 1.000000000000000000, 0.0000000000000000000, 0.0000000000000000000 ) ) ;
#211 = CALENDAR_DATE ( 2018, 21, 12 ) ;
#212 = EDGE_LOOP ( 'NONE', ( #125, #97, #191, #47, #75 ) ) ;
#213 = APPROVAL_PERSON_ORGANIZATION ( #28, #169, #42 ) ;
#214 = AXIS2_PLACEMENT_3D ( 'NONE', #199, #196, #73 ) ;
#215 = CARTESIAN_POINT ( 'NONE',  ( -4.715219226398935400, 4.688925862313182000, -1.241185653200332000 ) ) ;
#216 =( BOUNDED_SURFACE ( )  B_SPLINE_SURFACE ( 3, 3, ( 
 ( #161, #127, #217, #111 ),
 ( #56, #165, #128, #57 ),
 ( #181, #202, #234, #149 ),
 ( #100, #62, #3, #6 ) ),
 .UNSPECIFIED., .F., .F., .F. ) 
 B_SPLINE_SURFACE_WITH_KNOTS ( ( 4, 4 ),
 ( 4, 4 ),
 ( 0.0000000000000000000, 1.000000000000000000 ),
 ( 0.0000000000000000000, 1.000000000000000000 ),
 .UNSPECIFIED. ) 
 GEOMETRIC_REPRESENTATION_ITEM ( )  RATIONAL_B_SPLINE_SURFACE ( (
 ( 1.000000000000000000, 0.9780644763997014000, 0.9780644763997014000, 1.000000000000000000),
 ( 0.9126920762376983200, 0.8926716976595807700, 0.8926716976595807700, 0.9126920762376983200),
 ( 0.9126920762376983200, 0.8926716976595807700, 0.8926716976595807700, 0.9126920762376983200),
 ( 1.000000000000000000, 0.9780644763997014000, 0.9780644763997014000, 1.000000000000000000) ) ) 
 REPRESENTATION_ITEM ( '' )  SURFACE ( )  );
#217 = CARTESIAN_POINT ( 'NONE',  ( 7.692644159805065700, -12.83863644179774100, 4.393367778717704100 ) ) ;
#218 = DIRECTION ( 'NONE',  ( 1.000000000000000000, 0.0000000000000000000, 0.0000000000000000000 ) ) ;
#219 = CARTESIAN_POINT ( 'NONE',  ( -11.09707646914857500, -12.83863644179774300, 6.317710063438567200 ) ) ;
#220 = APPROVAL_PERSON_ORGANIZATION ( #148, #76, #61 ) ;
#221 = CIRCLE ( 'NONE', #94, 12.69999999999999900 ) ;
#222 = PERSON_AND_ORGANIZATION_ROLE ( 'design_supplier' ) ;
#223 = COORDINATED_UNIVERSAL_TIME_OFFSET ( 2, 0, .AHEAD. ) ;
#224 = EDGE_CURVE ( 'NONE', #120, #168, #74, .T. ) ;
#225 = ORIENTED_EDGE ( 'NONE', *, *, #224, .T. ) ;
#226 = CALENDAR_DATE ( 2018, 21, 12 ) ;
#227 = DIRECTION ( 'NONE',  ( -0.0000000000000000000, -0.0000000000000000000, -1.000000000000000000 ) ) ;
#228 = LOCAL_TIME ( 8, 51, 8.000000000000000000, #31 ) ;
#229 = VERTEX_POINT ( 'NONE', #185 ) ;
#230 = CC_DESIGN_APPROVAL ( #169, ( #133 ) ) ;
#231 = CC_DESIGN_DATE_AND_TIME_ASSIGNMENT ( #92, #154, ( #197 ) ) ;
#232 = VERTEX_POINT ( 'NONE', #135 ) ;
#233 = CARTESIAN_POINT ( 'NONE',  ( -3.910658841891816900, 12.83863644179775900, 3.398460932447595200 ) ) ;
#234 = CARTESIAN_POINT ( 'NONE',  ( 9.275292248865966400, 4.688925862313182900, -0.04159139564057205700 ) ) ;
#235 = COORDINATED_UNIVERSAL_TIME_OFFSET ( 2, 0, .AHEAD. ) ;
ENDSEC;
END-ISO-10303-21;
