ISO-10303-21;
HEADER;
FILE_DESCRIPTION (( 'STEP AP203' ),
    '1' );
FILE_NAME ('110-0207E BK7 pl-cx 25.4 F40.STEP',
    '2018-12-21T06:51:44',
    ( '' ),
    ( '' ),
    'SwSTEP 2.0',
    'SolidWorks 2017',
    '' );
FILE_SCHEMA (( 'CONFIG_CONTROL_DESIGN' ));
ENDSEC;

DATA;
#1 = CARTESIAN_POINT ( 'NONE',  ( -5.057419559607082800, -4.988225096385552800, -1.726869640513381900 ) ) ;
#2 = PERSON_AND_ORGANIZATION ( #17, #22 ) ;
#3 = EDGE_CURVE ( 'NONE', #67, #214, #111, .T. ) ;
#4 = SECURITY_CLASSIFICATION_LEVEL ( 'unclassified' ) ;
#5 = ORIENTED_EDGE ( 'NONE', *, *, #178, .T. ) ;
#6 = PERSON_AND_ORGANIZATION_ROLE ( 'classification_officer' ) ;
#7 = VECTOR ( 'NONE', #181, 1000.000000000000000 ) ;
#8 =( NAMED_UNIT ( * ) SI_UNIT ( $, .STERADIAN. ) SOLID_ANGLE_UNIT ( ) );
#9 = PRODUCT_DEFINITION ( 'UNKNOWN', '', #77, #97 ) ;
#10 = VERTEX_POINT ( 'NONE', #210 ) ;
#11 = COORDINATED_UNIVERSAL_TIME_OFFSET ( 2, 0, .AHEAD. ) ;
#12 = FACE_OUTER_BOUND ( 'NONE', #152, .T. ) ;
#13 = CARTESIAN_POINT ( 'NONE',  ( 9.839818224807562100, -4.988225096385552800, -0.08182994221279417400 ) ) ;
#14 = DATE_AND_TIME ( #32, #200 ) ;
#15 = CC_DESIGN_APPROVAL ( #64, ( #9 ) ) ;
#16 = CARTESIAN_POINT ( 'NONE',  ( 10.03256093501668500, -12.82929916921615800, 7.892344540627688900 ) ) ;
#17 = PERSON ( 'UNSPECIFIED', 'UNSPECIFIED', 'UNSPECIFIED', ('UNSPECIFIED'), ('UNSPECIFIED'), ('UNSPECIFIED') ) ;
#18 = ORIENTED_EDGE ( 'NONE', *, *, #193, .T. ) ;
#19 = DIRECTION ( 'NONE',  ( -0.0000000000000000000, -0.0000000000000000000, -1.000000000000000000 ) ) ;
#20 = LINE ( 'NONE', #234, #7 ) ;
#21 = AXIS2_PLACEMENT_3D ( 'NONE', #42, #84, #132 ) ;
#22 = ORGANIZATION ( 'UNSPECIFIED', 'UNSPECIFIED', '' ) ;
#23 = CARTESIAN_POINT ( 'NONE',  ( 4.996003610813200500E-016, 2.442490654175340100E-015, 4.340475326810950400 ) ) ;
#24 = CIRCLE ( 'NONE', #81, 12.69999999999999900 ) ;
#25 = CC_DESIGN_SECURITY_CLASSIFICATION ( #174, ( #77 ) ) ;
#26 = DIRECTION ( 'NONE',  ( -0.0000000000000000000, -0.0000000000000000000, -1.000000000000000000 ) ) ;
#27 = CARTESIAN_POINT ( 'NONE',  ( 12.69999999999999900, 2.442490654175340100E-015, 4.340475326810950400 ) ) ;
#28 = UNCERTAINTY_MEASURE_WITH_UNIT (LENGTH_MEASURE( 1.000000000000000100E-005 ), #70, 'distance_accuracy_value', 'NONE');
#29 = FACE_OUTER_BOUND ( 'NONE', #155, .T. ) ;
#30 = CC_DESIGN_DATE_AND_TIME_ASSIGNMENT ( #183, #219, ( #9 ) ) ;
#31 = PERSON_AND_ORGANIZATION_ROLE ( 'design_owner' ) ;
#32 = CALENDAR_DATE ( 2018, 21, 12 ) ;
#33 = CARTESIAN_POINT ( 'NONE',  ( -10.03256093501668500, -12.82929916921615600, 7.892344540627694200 ) ) ;
#34 = AXIS2_PLACEMENT_3D ( 'NONE', #112, #213, #165 ) ;
#35 = CALENDAR_DATE ( 2018, 21, 12 ) ;
#36 = ORIENTED_EDGE ( 'NONE', *, *, #163, .T. ) ;
#37 = ADVANCED_FACE ( 'NONE', ( #54 ), #79, .T. ) ;
#38 = CARTESIAN_POINT ( 'NONE',  ( 3.669532816841269500, 12.82929916921617100, 4.441364777310473000 ) ) ;
#39 = PRODUCT_RELATED_PRODUCT_CATEGORY ( 'detail', '', ( #199 ) ) ;
#40 = CARTESIAN_POINT ( 'NONE',  ( 3.552713678800500100E-015, -12.69999999999999000, 4.340475326810951300 ) ) ;
#41 = AXIS2_PLACEMENT_3D ( 'NONE', #216, #19, #62 ) ;
#42 = CARTESIAN_POINT ( 'NONE',  ( 4.996003610813200500E-016, 2.442490654175340100E-015, 4.340475326810950400 ) ) ;
#43 = DIRECTION ( 'NONE',  ( 0.0000000000000000000, 0.0000000000000000000, 1.000000000000000000 ) ) ;
#44 = DIRECTION ( 'NONE',  ( 1.000000000000000000, 0.0000000000000000000, 0.0000000000000000000 ) ) ;
#45 = ORIENTED_EDGE ( 'NONE', *, *, #3, .F. ) ;
#46 = DATE_TIME_ROLE ( 'classification_date' ) ;
#47 = SHAPE_DEFINITION_REPRESENTATION ( #212, #176 ) ;
#48 =( BOUNDED_SURFACE ( )  B_SPLINE_SURFACE ( 3, 3, ( 
 ( #33, #223, #63, #166 ),
 ( #149, #98, #1, #202 ),
 ( #134, #100, #151, #85 ),
 ( #197, #184, #93, #76 ) ),
 .UNSPECIFIED., .F., .F., .F. ) 
 B_SPLINE_SURFACE_WITH_KNOTS ( ( 4, 4 ),
 ( 4, 4 ),
 ( 0.0000000000000000000, 1.000000000000000000 ),
 ( 0.0000000000000000000, 1.000000000000000000 ),
 .UNSPECIFIED. ) 
 GEOMETRIC_REPRESENTATION_ITEM ( )  RATIONAL_B_SPLINE_SURFACE ( (
 ( 1.000000000000000000, 0.9637468751056171800, 0.9637468751056171800, 1.000000000000000000),
 ( 0.8573055493233582300, 0.8262255441710910600, 0.8262255441710910600, 0.8573055493233582300),
 ( 0.8573055493233582300, 0.8262255441710910600, 0.8262255441710910600, 0.8573055493233582300),
 ( 1.000000000000000000, 0.9637468751056171800, 0.9637468751056171800, 1.000000000000000000) ) ) 
 REPRESENTATION_ITEM ( '' )  SURFACE ( )  );
#49 = PERSON_AND_ORGANIZATION_ROLE ( 'creator' ) ;
#50 = EDGE_CURVE ( 'NONE', #67, #106, #141, .T. ) ;
#51 = CALENDAR_DATE ( 2018, 21, 12 ) ;
#52 = ADVANCED_FACE ( 'NONE', ( #91 ), #48, .T. ) ;
#53 = DIRECTION ( 'NONE',  ( 1.000000000000000000, 0.0000000000000000000, 0.0000000000000000000 ) ) ;
#54 = FACE_OUTER_BOUND ( 'NONE', #182, .T. ) ;
#55 = CC_DESIGN_PERSON_AND_ORGANIZATION_ASSIGNMENT ( #201, #121, ( #77 ) ) ;
#56 = DIRECTION ( 'NONE',  ( 1.000000000000000000, 0.0000000000000000000, 0.0000000000000000000 ) ) ;
#57 = ORIENTED_EDGE ( 'NONE', *, *, #50, .T. ) ;
#58 = LOCAL_TIME ( 8, 51, 44.00000000000000000, #107 ) ;
#59 = CC_DESIGN_PERSON_AND_ORGANIZATION_ASSIGNMENT ( #2, #49, ( #9 ) ) ;
#60 = ORIENTED_EDGE ( 'NONE', *, *, #193, .F. ) ;
#61 = PERSON_AND_ORGANIZATION ( #17, #22 ) ;
#62 = DIRECTION ( 'NONE',  ( 1.000000000000000000, 0.0000000000000000000, 0.0000000000000000000 ) ) ;
#63 = CARTESIAN_POINT ( 'NONE',  ( -3.669532816841262000, -12.82929916921615600, 4.441364777310474700 ) ) ;
#64 = APPROVAL ( #217, 'UNSPECIFIED' ) ;
#65 = CARTESIAN_POINT ( 'NONE',  ( 0.0000000000000000000, 26.11199999999999800, 6.099999999999999600 ) ) ;
#66 = PERSON_AND_ORGANIZATION ( #17, #22 ) ;
#67 = VERTEX_POINT ( 'NONE', #40 ) ;
#68 = APPLICATION_PROTOCOL_DEFINITION ( 'international standard', 'config_control_design', 1994, #158 ) ;
#69 = COORDINATED_UNIVERSAL_TIME_OFFSET ( 2, 0, .AHEAD. ) ;
#70 =( LENGTH_UNIT ( ) NAMED_UNIT ( * ) SI_UNIT ( .MILLI., .METRE. ) );
#71 = CYLINDRICAL_SURFACE ( 'NONE', #139, 12.69999999999999900 ) ;
#72 = PERSON_AND_ORGANIZATION ( #17, #22 ) ;
#73 = EDGE_CURVE ( 'NONE', #10, #231, #138, .T. ) ;
#74 = CARTESIAN_POINT ( 'NONE',  ( 3.552713678800500900E-015, -4.988225096385553700, -1.726869640513387200 ) ) ;
#75 = EDGE_LOOP ( 'NONE', ( #45, #57, #94 ) ) ;
#76 = CARTESIAN_POINT ( 'NONE',  ( 0.0000000000000000000, 12.82929916921617100, 4.441364777310474700 ) ) ;
#77 = PRODUCT_DEFINITION_FORMATION_WITH_SPECIFIED_SOURCE ( 'ANY', '', #199, .NOT_KNOWN. ) ;
#78 = LINE ( 'NONE', #172, #229 ) ;
#79 =( BOUNDED_SURFACE ( )  B_SPLINE_SURFACE ( 3, 3, ( 
 ( #142, #180, #125, #16 ),
 ( #74, #143, #13, #196 ),
 ( #211, #110, #226, #194 ),
 ( #225, #38, #140, #129 ) ),
 .UNSPECIFIED., .F., .F., .T. ) 
 B_SPLINE_SURFACE_WITH_KNOTS ( ( 4, 4 ),
 ( 4, 4 ),
 ( 0.0000000000000000000, 1.000000000000000000 ),
 ( 0.0000000000000000000, 1.000000000000000000 ),
 .UNSPECIFIED. ) 
 GEOMETRIC_REPRESENTATION_ITEM ( )  RATIONAL_B_SPLINE_SURFACE ( (
 ( 1.000000000000000000, 0.9637468751056171800, 0.9637468751056171800, 1.000000000000000000),
 ( 0.8573055493233582300, 0.8262255441710910600, 0.8262255441710910600, 0.8573055493233582300),
 ( 0.8573055493233582300, 0.8262255441710910600, 0.8262255441710910600, 0.8573055493233582300),
 ( 1.000000000000000000, 0.9637468751056171800, 0.9637468751056171800, 1.000000000000000000) ) ) 
 REPRESENTATION_ITEM ( '' )  SURFACE ( )  );
#80 = DIRECTION ( 'NONE',  ( -0.0000000000000000000, -0.0000000000000000000, -1.000000000000000000 ) ) ;
#81 = AXIS2_PLACEMENT_3D ( 'NONE', #117, #80, #56 ) ;
#82 = CARTESIAN_POINT ( 'NONE',  ( 4.996003610813200500E-016, 2.442490654175340100E-015, 4.340475326810950400 ) ) ;
#83 = CIRCLE ( 'NONE', #41, 12.69999999999999900 ) ;
#84 = DIRECTION ( 'NONE',  ( -0.0000000000000000000, -0.0000000000000000000, -1.000000000000000000 ) ) ;
#85 = CARTESIAN_POINT ( 'NONE',  ( -1.734723475976807100E-015, 4.988225096385572300, -1.726869640513386500 ) ) ;
#86 = APPROVAL_ROLE ( '' ) ;
#87 = LOCAL_TIME ( 8, 51, 44.00000000000000000, #130 ) ;
#88 = APPLICATION_PROTOCOL_DEFINITION ( 'international standard', 'config_control_design', 1994, #173 ) ;
#89 = FACE_OUTER_BOUND ( 'NONE', #101, .T. ) ;
#90 = APPROVAL ( #169, 'UNSPECIFIED' ) ;
#91 = FACE_OUTER_BOUND ( 'NONE', #75, .T. ) ;
#92 = PLANE ( 'NONE',  #122 ) ;
#93 = CARTESIAN_POINT ( 'NONE',  ( -3.669532816841266400, 12.82929916921617100, 4.441364777310475600 ) ) ;
#94 = ORIENTED_EDGE ( 'NONE', *, *, #170, .T. ) ;
#95 = CYLINDRICAL_SURFACE ( 'NONE', #99, 12.69999999999999900 ) ;
#96 = DATE_AND_TIME ( #35, #87 ) ;
#97 = DESIGN_CONTEXT ( 'detailed design', #158, 'design' ) ;
#98 = CARTESIAN_POINT ( 'NONE',  ( -9.839818224807563900, -4.988225096385555400, -0.08182994221279156500 ) ) ;
#99 = AXIS2_PLACEMENT_3D ( 'NONE', #23, #118, #185 ) ;
#100 = CARTESIAN_POINT ( 'NONE',  ( -9.839818224807567400, 4.988225096385571400, -0.08182994221279026000 ) ) ;
#101 = EDGE_LOOP ( 'NONE', ( #188, #207, #60, #135, #159 ) ) ;
#102 = CARTESIAN_POINT ( 'NONE',  ( 0.0000000000000000000, 0.0000000000000000000, 0.0000000000000000000 ) ) ;
#103 = ORIENTED_EDGE ( 'NONE', *, *, #3, .T. ) ;
#104 =( NAMED_UNIT ( * ) PLANE_ANGLE_UNIT ( ) SI_UNIT ( $, .RADIAN. ) );
#105 =( GEOMETRIC_REPRESENTATION_CONTEXT ( 3 ) GLOBAL_UNCERTAINTY_ASSIGNED_CONTEXT ( ( #28 ) ) GLOBAL_UNIT_ASSIGNED_CONTEXT ( ( #70, #104, #8 ) ) REPRESENTATION_CONTEXT ( 'NONE', 'WORKASPACE' ) );
#106 = VERTEX_POINT ( 'NONE', #233 ) ;
#107 = COORDINATED_UNIVERSAL_TIME_OFFSET ( 2, 0, .AHEAD. ) ;
#108 = ORIENTED_EDGE ( 'NONE', *, *, #227, .F. ) ;
#109 = PERSON_AND_ORGANIZATION ( #17, #22 ) ;
#110 = CARTESIAN_POINT ( 'NONE',  ( 5.057419559607081000, 4.988225096385570500, -1.726869640513386300 ) ) ;
#111 = CIRCLE ( 'NONE', #191, 20.75000000000000000 ) ;
#112 = CARTESIAN_POINT ( 'NONE',  ( 4.996003610813200500E-016, 2.442490654175340100E-015, 6.099999999999999600 ) ) ;
#113 = ORIENTED_EDGE ( 'NONE', *, *, #221, .F. ) ;
#114 = DATE_AND_TIME ( #51, #171 ) ;
#115 = DIRECTION ( 'NONE',  ( 1.000000000000000000, 0.0000000000000000000, 0.0000000000000000000 ) ) ;
#116 = CC_DESIGN_PERSON_AND_ORGANIZATION_ASSIGNMENT ( #220, #31, ( #199 ) ) ;
#117 = CARTESIAN_POINT ( 'NONE',  ( 4.996003610813200500E-016, 2.442490654175340100E-015, 4.340475326810950400 ) ) ;
#118 = DIRECTION ( 'NONE',  ( 0.0000000000000000000, 0.0000000000000000000, 1.000000000000000000 ) ) ;
#119 = DIRECTION ( 'NONE',  ( -0.0000000000000000000, -0.0000000000000000000, -1.000000000000000000 ) ) ;
#120 = APPROVAL_STATUS ( 'not_yet_approved' ) ;
#121 = PERSON_AND_ORGANIZATION_ROLE ( 'creator' ) ;
#122 = AXIS2_PLACEMENT_3D ( 'NONE', #65, #43, #203 ) ;
#123 = DIRECTION ( 'NONE',  ( 0.0000000000000000000, 0.0000000000000000000, 1.000000000000000000 ) ) ;
#124 = APPROVAL ( #120, 'UNSPECIFIED' ) ;
#125 = CARTESIAN_POINT ( 'NONE',  ( 7.139517586413051100, -12.82929916921615800, 5.634963031671963700 ) ) ;
#126 = ADVANCED_FACE ( 'NONE', ( #12 ), #92, .T. ) ;
#127 = VERTEX_POINT ( 'NONE', #27 ) ;
#128 = CC_DESIGN_APPROVAL ( #124, ( #77 ) ) ;
#129 = CARTESIAN_POINT ( 'NONE',  ( 10.03256093501669500, 12.82929916921616700, 7.892344540627692400 ) ) ;
#130 = COORDINATED_UNIVERSAL_TIME_OFFSET ( 2, 0, .AHEAD. ) ;
#131 = AXIS2_PLACEMENT_3D ( 'NONE', #102, #205, #218 ) ;
#132 = DIRECTION ( 'NONE',  ( 1.000000000000000000, 0.0000000000000000000, 0.0000000000000000000 ) ) ;
#133 = CC_DESIGN_PERSON_AND_ORGANIZATION_ASSIGNMENT ( #61, #6, ( #174 ) ) ;
#134 = CARTESIAN_POINT ( 'NONE',  ( -13.82706530728872900, 4.988225096385568800, 3.029335965472264500 ) ) ;
#135 = ORIENTED_EDGE ( 'NONE', *, *, #227, .T. ) ;
#136 = PERSON_AND_ORGANIZATION ( #17, #22 ) ;
#137 = APPROVAL_ROLE ( '' ) ;
#138 = CIRCLE ( 'NONE', #34, 12.69999999999999900 ) ;
#139 = AXIS2_PLACEMENT_3D ( 'NONE', #187, #215, #115 ) ;
#140 = CARTESIAN_POINT ( 'NONE',  ( 7.139517586413058200, 12.82929916921617100, 5.634963031671965400 ) ) ;
#141 = CIRCLE ( 'NONE', #21, 12.69999999999999900 ) ;
#142 = CARTESIAN_POINT ( 'NONE',  ( 3.552713678800500100E-015, -12.82929916921615600, 4.441364777310473000 ) ) ;
#143 = CARTESIAN_POINT ( 'NONE',  ( 5.057419559607079200, -4.988225096385552800, -1.726869640513386800 ) ) ;
#144 = CC_DESIGN_DATE_AND_TIME_ASSIGNMENT ( #146, #46, ( #174 ) ) ;
#145 = ADVANCED_FACE ( 'NONE', ( #89 ), #71, .T. ) ;
#146 = DATE_AND_TIME ( #192, #58 ) ;
#147 = ORIENTED_EDGE ( 'NONE', *, *, #221, .T. ) ;
#148 = LOCAL_TIME ( 8, 51, 44.00000000000000000, #69 ) ;
#149 = CARTESIAN_POINT ( 'NONE',  ( -13.82706530728872500, -4.988225096385559000, 3.029335965472263600 ) ) ;
#150 = CC_DESIGN_PERSON_AND_ORGANIZATION_ASSIGNMENT ( #109, #190, ( #77 ) ) ;
#151 = CARTESIAN_POINT ( 'NONE',  ( -5.057419559607081000, 4.988225096385572300, -1.726869640513385200 ) ) ;
#152 = EDGE_LOOP ( 'NONE', ( #224, #228 ) ) ;
#153 = APPROVAL_ROLE ( '' ) ;
#154 = CARTESIAN_POINT ( 'NONE',  ( -12.69999999999999900, 3.997792089092478900E-015, 6.099999999999999600 ) ) ;
#155 = EDGE_LOOP ( 'NONE', ( #179, #5, #36, #108, #113 ) ) ;
#156 = AXIS2_PLACEMENT_3D ( 'NONE', #235, #26, #204 ) ;
#157 = APPROVAL_DATE_TIME ( #14, #124 ) ;
#158 = APPLICATION_CONTEXT ( 'configuration controlled 3d designs of mechanical parts and assemblies' ) ;
#159 = ORIENTED_EDGE ( 'NONE', *, *, #73, .T. ) ;
#160 = APPROVAL_DATE_TIME ( #96, #90 ) ;
#161 = CARTESIAN_POINT ( 'NONE',  ( 3.552713678800500100E-015, 8.881784197001250700E-015, 20.75000000000000000 ) ) ;
#162 = COORDINATED_UNIVERSAL_TIME_OFFSET ( 2, 0, .AHEAD. ) ;
#163 = EDGE_CURVE ( 'NONE', #231, #10, #83, .T. ) ;
#164 = APPROVAL_PERSON_ORGANIZATION ( #66, #124, #137 ) ;
#165 = DIRECTION ( 'NONE',  ( 1.000000000000000000, 0.0000000000000000000, 0.0000000000000000000 ) ) ;
#166 = CARTESIAN_POINT ( 'NONE',  ( 0.0000000000000000000, -12.82929916921615600, 4.441364777310473900 ) ) ;
#167 = CARTESIAN_POINT ( 'NONE',  ( 3.552713678800500100E-015, 12.70000000000000100, 4.340475326810949500 ) ) ;
#168 = CIRCLE ( 'NONE', #156, 12.69999999999999900 ) ;
#169 = APPROVAL_STATUS ( 'not_yet_approved' ) ;
#170 = EDGE_CURVE ( 'NONE', #106, #214, #24, .T. ) ;
#171 = LOCAL_TIME ( 8, 51, 44.00000000000000000, #162 ) ;
#172 = CARTESIAN_POINT ( 'NONE',  ( 12.69999999999999900, 2.442490654175340100E-015, 4.340475326810950400 ) ) ;
#173 = APPLICATION_CONTEXT ( 'configuration controlled 3d designs of mechanical parts and assemblies' ) ;
#174 = SECURITY_CLASSIFICATION ( '', '', #4 ) ;
#175 = APPROVAL_PERSON_ORGANIZATION ( #136, #90, #153 ) ;
#176 = ADVANCED_BREP_SHAPE_REPRESENTATION ( '110-0207E BK7 pl-cx 25.4 F40', ( #230, #131 ), #105 ) ;
#177 = DIRECTION ( 'NONE',  ( 0.0000000000000000000, -1.000000000000000000, -6.688090509790100000E-016 ) ) ;
#178 = EDGE_CURVE ( 'NONE', #106, #231, #20, .T. ) ;
#179 = ORIENTED_EDGE ( 'NONE', *, *, #170, .F. ) ;
#180 = CARTESIAN_POINT ( 'NONE',  ( 3.669532816841264600, -12.82929916921615600, 4.441364777310473000 ) ) ;
#181 = DIRECTION ( 'NONE',  ( 0.0000000000000000000, 0.0000000000000000000, 1.000000000000000000 ) ) ;
#182 = EDGE_LOOP ( 'NONE', ( #18, #103, #147 ) ) ;
#183 = DATE_AND_TIME ( #208, #148 ) ;
#184 = CARTESIAN_POINT ( 'NONE',  ( -7.139517586413058200, 12.82929916921617100, 5.634963031671969000 ) ) ;
#185 = DIRECTION ( 'NONE',  ( 1.000000000000000000, 0.0000000000000000000, 0.0000000000000000000 ) ) ;
#186 = CC_DESIGN_APPROVAL ( #90, ( #174 ) ) ;
#187 = CARTESIAN_POINT ( 'NONE',  ( 4.996003610813200500E-016, 2.442490654175340100E-015, 4.340475326810950400 ) ) ;
#188 = ORIENTED_EDGE ( 'NONE', *, *, #178, .F. ) ;
#189 = MECHANICAL_CONTEXT ( 'NONE', #173, 'mechanical' ) ;
#190 = PERSON_AND_ORGANIZATION_ROLE ( 'design_supplier' ) ;
#191 = AXIS2_PLACEMENT_3D ( 'NONE', #161, #53, #177 ) ;
#192 = CALENDAR_DATE ( 2018, 21, 12 ) ;
#193 = EDGE_CURVE ( 'NONE', #127, #67, #209, .T. ) ;
#194 = CARTESIAN_POINT ( 'NONE',  ( 13.82706530728872500, 4.988225096385566100, 3.029335965472258300 ) ) ;
#195 = APPROVAL_DATE_TIME ( #114, #64 ) ;
#196 = CARTESIAN_POINT ( 'NONE',  ( 13.82706530728871800, -4.988225096385558100, 3.029335965472257400 ) ) ;
#197 = CARTESIAN_POINT ( 'NONE',  ( -10.03256093501669500, 12.82929916921616900, 7.892344540627697700 ) ) ;
#198 = CLOSED_SHELL ( 'NONE', ( #37, #222, #52, #145, #126 ) ) ;
#199 = PRODUCT ( '110-0207E BK7 pl-cx 25.4 F40', '110-0207E BK7 pl-cx 25.4 F40', '', ( #189 ) ) ;
#200 = LOCAL_TIME ( 8, 51, 44.00000000000000000, #11 ) ;
#201 = PERSON_AND_ORGANIZATION ( #17, #22 ) ;
#202 = CARTESIAN_POINT ( 'NONE',  ( -3.469446951953614200E-015, -4.988225096385553700, -1.726869640513383400 ) ) ;
#203 = DIRECTION ( 'NONE',  ( 1.000000000000000000, 0.0000000000000000000, -0.0000000000000000000 ) ) ;
#204 = DIRECTION ( 'NONE',  ( 1.000000000000000000, -8.881784197001252300E-016, 0.0000000000000000000 ) ) ;
#205 = DIRECTION ( 'NONE',  ( 0.0000000000000000000, 0.0000000000000000000, 1.000000000000000000 ) ) ;
#206 = APPROVAL_PERSON_ORGANIZATION ( #72, #64, #86 ) ;
#207 = ORIENTED_EDGE ( 'NONE', *, *, #50, .F. ) ;
#208 = CALENDAR_DATE ( 2018, 21, 12 ) ;
#209 = CIRCLE ( 'NONE', #232, 12.69999999999999900 ) ;
#210 = CARTESIAN_POINT ( 'NONE',  ( 12.69999999999999900, 2.442490654175340100E-015, 6.099999999999999600 ) ) ;
#211 = CARTESIAN_POINT ( 'NONE',  ( 3.552713678800500900E-015, 4.988225096385571400, -1.726869640513386500 ) ) ;
#212 = PRODUCT_DEFINITION_SHAPE ( 'NONE', 'NONE',  #9 ) ;
#213 = DIRECTION ( 'NONE',  ( -0.0000000000000000000, -0.0000000000000000000, -1.000000000000000000 ) ) ;
#214 = VERTEX_POINT ( 'NONE', #167 ) ;
#215 = DIRECTION ( 'NONE',  ( 0.0000000000000000000, 0.0000000000000000000, 1.000000000000000000 ) ) ;
#216 = CARTESIAN_POINT ( 'NONE',  ( 4.996003610813200500E-016, 2.442490654175340100E-015, 6.099999999999999600 ) ) ;
#217 = APPROVAL_STATUS ( 'not_yet_approved' ) ;
#218 = DIRECTION ( 'NONE',  ( 1.000000000000000000, 0.0000000000000000000, 0.0000000000000000000 ) ) ;
#219 = DATE_TIME_ROLE ( 'creation_date' ) ;
#220 = PERSON_AND_ORGANIZATION ( #17, #22 ) ;
#221 = EDGE_CURVE ( 'NONE', #214, #127, #168, .T. ) ;
#222 = ADVANCED_FACE ( 'NONE', ( #29 ), #95, .T. ) ;
#223 = CARTESIAN_POINT ( 'NONE',  ( -7.139517586413051100, -12.82929916921615600, 5.634963031671968100 ) ) ;
#224 = ORIENTED_EDGE ( 'NONE', *, *, #73, .F. ) ;
#225 = CARTESIAN_POINT ( 'NONE',  ( 3.552713678800500100E-015, 12.82929916921617100, 4.441364777310473000 ) ) ;
#226 = CARTESIAN_POINT ( 'NONE',  ( 9.839818224807563900, 4.988225096385569700, -0.08182994221279288300 ) ) ;
#227 = EDGE_CURVE ( 'NONE', #127, #10, #78, .T. ) ;
#228 = ORIENTED_EDGE ( 'NONE', *, *, #163, .F. ) ;
#229 = VECTOR ( 'NONE', #123, 1000.000000000000000 ) ;
#230 = MANIFOLD_SOLID_BREP ( 'Imported1', #198 ) ;
#231 = VERTEX_POINT ( 'NONE', #154 ) ;
#232 = AXIS2_PLACEMENT_3D ( 'NONE', #82, #119, #44 ) ;
#233 = CARTESIAN_POINT ( 'NONE',  ( -12.69999999999999900, 3.997792089092478900E-015, 4.340475326810950400 ) ) ;
#234 = CARTESIAN_POINT ( 'NONE',  ( -12.69999999999999900, 3.997792089092478900E-015, 4.340475326810950400 ) ) ;
#235 = CARTESIAN_POINT ( 'NONE',  ( 4.996003610813200500E-016, 2.442490654175340100E-015, 4.340475326810950400 ) ) ;
ENDSEC;
END-ISO-10303-21;
