ISO-10303-21;
HEADER;
FILE_DESCRIPTION (( 'STEP AP203' ),
    '1' );
FILE_NAME ('110-0205E BK7 pl-cx 25.4 F30.STEP',
    '2018-12-21T06:51:54',
    ( '' ),
    ( '' ),
    'SwSTEP 2.0',
    'SolidWorks 2017',
    '' );
FILE_SCHEMA (( 'CONFIG_CONTROL_DESIGN' ));
ENDSEC;

DATA;
#1 = CC_DESIGN_APPROVAL ( #219, ( #50 ) ) ;
#2 = PRODUCT_DEFINITION_SHAPE ( 'NONE', 'NONE',  #80 ) ;
#3 = ORIENTED_EDGE ( 'NONE', *, *, #115, .T. ) ;
#4 = CARTESIAN_POINT ( 'NONE',  ( -7.247665905264439900, -12.80216968358301000, 10.49152978519006900 ) ) ;
#5 = CALENDAR_DATE ( 2018, 21, 12 ) ;
#6 = CC_DESIGN_PERSON_AND_ORGANIZATION_ASSIGNMENT ( #78, #75, ( #230 ) ) ;
#7 = DATE_AND_TIME ( #110, #148 ) ;
#8 = PERSON_AND_ORGANIZATION ( #13, #166 ) ;
#9 = ORIENTED_EDGE ( 'NONE', *, *, #178, .T. ) ;
#10 = DIRECTION ( 'NONE',  ( 0.0000000000000000000, 0.0000000000000000000, 1.000000000000000000 ) ) ;
#11 = CARTESIAN_POINT ( 'NONE',  ( 4.996003610813200500E-016, 2.442490654175340100E-015, 8.500000000000000000 ) ) ;
#12 = DIRECTION ( 'NONE',  ( -0.0000000000000000000, -0.0000000000000000000, -1.000000000000000000 ) ) ;
#13 = PERSON ( 'UNSPECIFIED', 'UNSPECIFIED', 'UNSPECIFIED', ('UNSPECIFIED'), ('UNSPECIFIED'), ('UNSPECIFIED') ) ;
#14 = APPROVAL_DATE_TIME ( #218, #21 ) ;
#15 = ORIENTED_EDGE ( 'NONE', *, *, #30, .T. ) ;
#16 = APPLICATION_PROTOCOL_DEFINITION ( 'international standard', 'config_control_design', 1994, #18 ) ;
#17 = CLOSED_SHELL ( 'NONE', ( #22, #220, #63, #100, #154 ) ) ;
#18 = APPLICATION_CONTEXT ( 'configuration controlled 3d designs of mechanical parts and assemblies' ) ;
#19 = EDGE_CURVE ( 'NONE', #112, #162, #168, .T. ) ;
#20 = ORIENTED_EDGE ( 'NONE', *, *, #138, .F. ) ;
#21 = APPROVAL ( #231, 'UNSPECIFIED' ) ;
#22 = ADVANCED_FACE ( 'NONE', ( #184 ), #79, .T. ) ;
#23 = APPROVAL_PERSON_ORGANIZATION ( #32, #118, #93 ) ;
#24 = CARTESIAN_POINT ( 'NONE',  ( 6.230563596781202300, -5.991355816663571900, -3.143011350197192600 ) ) ;
#25 = CC_DESIGN_PERSON_AND_ORGANIZATION_ASSIGNMENT ( #136, #92, ( #50 ) ) ;
#26 = COORDINATED_UNIVERSAL_TIME_OFFSET ( 2, 0, .AHEAD. ) ;
#27 = CARTESIAN_POINT ( 'NONE',  ( 5.559198448314980100, 12.80216968358300600, 8.077103439322678800 ) ) ;
#28 = DIRECTION ( 'NONE',  ( 0.0000000000000000000, 0.0000000000000000000, 1.000000000000000000 ) ) ;
#29 = DIRECTION ( 'NONE',  ( 0.0000000000000000000, 0.0000000000000000000, 1.000000000000000000 ) ) ;
#30 = EDGE_CURVE ( 'NONE', #223, #171, #197, .T. ) ;
#31 = DESIGN_CONTEXT ( 'detailed design', #179, 'design' ) ;
#32 = PERSON_AND_ORGANIZATION ( #13, #166 ) ;
#33 = DIRECTION ( 'NONE',  ( 0.0000000000000000000, 0.0000000000000000000, 1.000000000000000000 ) ) ;
#34 = EDGE_CURVE ( 'NONE', #43, #171, #137, .T. ) ;
#35 = DIRECTION ( 'NONE',  ( -0.0000000000000000000, -0.0000000000000000000, -1.000000000000000000 ) ) ;
#36 = CARTESIAN_POINT ( 'NONE',  ( 4.996003610813200500E-016, 2.442490654175340100E-015, 6.569805341373300000 ) ) ;
#37 = APPROVAL_DATE_TIME ( #185, #219 ) ;
#38 = AXIS2_PLACEMENT_3D ( 'NONE', #11, #12, #144 ) ;
#39 = ORIENTED_EDGE ( 'NONE', *, *, #34, .T. ) ;
#40 = CARTESIAN_POINT ( 'NONE',  ( 4.996003610813200500E-016, 2.442490654175340100E-015, 6.569805341373300000 ) ) ;
#41 = CC_DESIGN_APPROVAL ( #21, ( #230 ) ) ;
#42 = CIRCLE ( 'NONE', #146, 12.69999999999999900 ) ;
#43 = VERTEX_POINT ( 'NONE', #155 ) ;
#44 = EDGE_LOOP ( 'NONE', ( #67, #234, #186, #191, #15 ) ) ;
#45 = AXIS2_PLACEMENT_3D ( 'NONE', #173, #48, #123 ) ;
#46 = EDGE_CURVE ( 'NONE', #112, #43, #124, .T. ) ;
#47 = CARTESIAN_POINT ( 'NONE',  ( 2.946247941500514100, 12.80216968358300800, 6.715903019937643500 ) ) ;
#48 = DIRECTION ( 'NONE',  ( -0.0000000000000000000, -0.0000000000000000000, -1.000000000000000000 ) ) ;
#49 = CALENDAR_DATE ( 2018, 21, 12 ) ;
#50 = PRODUCT_DEFINITION_FORMATION_WITH_SPECIFIED_SOURCE ( 'ANY', '', #56, .NOT_KNOWN. ) ;
#51 = CARTESIAN_POINT ( 'NONE',  ( 4.996003610813200500E-016, 2.442490654175340100E-015, 6.569805341373300000 ) ) ;
#52 = ORIENTED_EDGE ( 'NONE', *, *, #19, .T. ) ;
#53 = CARTESIAN_POINT ( 'NONE',  ( 0.0000000000000000000, -12.80216968358301200, 6.715903019937645300 ) ) ;
#54 = CARTESIAN_POINT ( 'NONE',  ( -6.230563596781199600, 5.991355816663566500, -3.143011350197189000 ) ) ;
#55 = PERSON_AND_ORGANIZATION ( #13, #166 ) ;
#56 = PRODUCT ( '110-0205E BK7 pl-cx 25.4 F30', '110-0205E BK7 pl-cx 25.4 F30', '', ( #58 ) ) ;
#57 = CARTESIAN_POINT ( 'NONE',  ( 0.0000000000000000000, 0.0000000000000000000, 0.0000000000000000000 ) ) ;
#58 = MECHANICAL_CONTEXT ( 'NONE', #18, 'mechanical' ) ;
#59 = FACE_OUTER_BOUND ( 'NONE', #130, .T. ) ;
#60 =( LENGTH_UNIT ( ) NAMED_UNIT ( * ) SI_UNIT ( .MILLI., .METRE. ) );
#61 = AXIS2_PLACEMENT_3D ( 'NONE', #51, #86, #89 ) ;
#62 = COORDINATED_UNIVERSAL_TIME_OFFSET ( 2, 0, .AHEAD. ) ;
#63 = ADVANCED_FACE ( 'NONE', ( #134 ), #120, .T. ) ;
#64 = CARTESIAN_POINT ( 'NONE',  ( 7.247665905264440800, -12.80216968358301500, 10.49152978519006800 ) ) ;
#65 = AXIS2_PLACEMENT_3D ( 'NONE', #222, #82, #85 ) ;
#66 = LOCAL_TIME ( 8, 51, 54.00000000000000000, #26 ) ;
#67 = ORIENTED_EDGE ( 'NONE', *, *, #34, .F. ) ;
#68 = CARTESIAN_POINT ( 'NONE',  ( 4.996003610813200500E-016, 2.442490654175340100E-015, 6.569805341373300000 ) ) ;
#69 = VECTOR ( 'NONE', #147, 1000.000000000000000 ) ;
#70 = AXIS2_PLACEMENT_3D ( 'NONE', #212, #145, #106 ) ;
#71 = CARTESIAN_POINT ( 'NONE',  ( 12.69999999999999900, 2.442490654175340100E-015, 6.569805341373300000 ) ) ;
#72 = EDGE_LOOP ( 'NONE', ( #229, #205, #9 ) ) ;
#73 = DIRECTION ( 'NONE',  ( -0.0000000000000000000, -0.0000000000000000000, -1.000000000000000000 ) ) ;
#74 = DATE_TIME_ROLE ( 'creation_date' ) ;
#75 = PERSON_AND_ORGANIZATION_ROLE ( 'classification_officer' ) ;
#76 = CYLINDRICAL_SURFACE ( 'NONE', #187, 12.69999999999999900 ) ;
#77 = CC_DESIGN_DATE_AND_TIME_ASSIGNMENT ( #213, #74, ( #80 ) ) ;
#78 = PERSON_AND_ORGANIZATION ( #13, #166 ) ;
#79 =( BOUNDED_SURFACE ( )  B_SPLINE_SURFACE ( 3, 3, ( 
 ( #103, #135, #170, #64 ),
 ( #119, #24, #188, #202 ),
 ( #224, #189, #139, #101 ),
 ( #225, #47, #27, #158 ) ),
 .UNSPECIFIED., .F., .F., .F. ) 
 B_SPLINE_SURFACE_WITH_KNOTS ( ( 4, 4 ),
 ( 4, 4 ),
 ( 0.0000000000000000000, 1.000000000000000000 ),
 ( 0.0000000000000000000, 1.000000000000000000 ),
 .UNSPECIFIED. ) 
 GEOMETRIC_REPRESENTATION_ITEM ( )  RATIONAL_B_SPLINE_SURFACE ( (
 ( 1.000000000000000000, 0.9245826236614935700, 0.9245826236614935700, 1.000000000000000000),
 ( 0.7122577969178387500, 0.6585411825976506000, 0.6585411825976506000, 0.7122577969178387500),
 ( 0.7122577969178387500, 0.6585411825976506000, 0.6585411825976506000, 0.7122577969178387500),
 ( 1.000000000000000000, 0.9245826236614935700, 0.9245826236614935700, 1.000000000000000000) ) ) 
 REPRESENTATION_ITEM ( '' )  SURFACE ( )  );
#80 = PRODUCT_DEFINITION ( 'UNKNOWN', '', #50, #31 ) ;
#81 = CARTESIAN_POINT ( 'NONE',  ( 4.996003610813200500E-016, 2.442490654175340100E-015, 6.569805341373300000 ) ) ;
#82 = DIRECTION ( 'NONE',  ( 1.000000000000000000, -2.334397171258999800E-016, 3.419090247868619700E-017 ) ) ;
#83 = UNCERTAINTY_MEASURE_WITH_UNIT (LENGTH_MEASURE( 1.000000000000000100E-005 ), #60, 'distance_accuracy_value', 'NONE');
#84 = CC_DESIGN_SECURITY_CLASSIFICATION ( #230, ( #50 ) ) ;
#85 = DIRECTION ( 'NONE',  ( -2.334397171259000300E-016, -1.000000000000000000, -2.229721691486898600E-016 ) ) ;
#86 = DIRECTION ( 'NONE',  ( -0.0000000000000000000, -0.0000000000000000000, -1.000000000000000000 ) ) ;
#87 = CYLINDRICAL_SURFACE ( 'NONE', #99, 12.69999999999999900 ) ;
#88 = CARTESIAN_POINT ( 'NONE',  ( 0.0000000000000000000, 5.991355816663563900, -3.143011350197190800 ) ) ;
#89 = DIRECTION ( 'NONE',  ( 1.000000000000000000, -1.776356839400250500E-015, 0.0000000000000000000 ) ) ;
#90 = CARTESIAN_POINT ( 'NONE',  ( -5.559198448314971200, 12.80216968358301000, 8.077103439322678800 ) ) ;
#91 = COORDINATED_UNIVERSAL_TIME_OFFSET ( 2, 0, .AHEAD. ) ;
#92 = PERSON_AND_ORGANIZATION_ROLE ( 'design_supplier' ) ;
#93 = APPROVAL_ROLE ( '' ) ;
#94 = ORIENTED_EDGE ( 'NONE', *, *, #30, .F. ) ;
#95 = DATE_TIME_ROLE ( 'classification_date' ) ;
#96 = ORIENTED_EDGE ( 'NONE', *, *, #115, .F. ) ;
#97 = APPLICATION_PROTOCOL_DEFINITION ( 'international standard', 'config_control_design', 1994, #179 ) ;
#98 = CALENDAR_DATE ( 2018, 21, 12 ) ;
#99 = AXIS2_PLACEMENT_3D ( 'NONE', #68, #10, #159 ) ;
#100 = ADVANCED_FACE ( 'NONE', ( #153 ), #87, .T. ) ;
#101 = CARTESIAN_POINT ( 'NONE',  ( 15.32696644939350100, 5.991355816663557700, 4.841477106206699700 ) ) ;
#102 = AXIS2_PLACEMENT_3D ( 'NONE', #57, #163, #196 ) ;
#103 = CARTESIAN_POINT ( 'NONE',  ( 8.665664666244640300E-016, -12.80216968358301200, 6.715903019937644400 ) ) ;
#104 = LOCAL_TIME ( 8, 51, 54.00000000000000000, #183 ) ;
#105 = LINE ( 'NONE', #227, #69 ) ;
#106 = DIRECTION ( 'NONE',  ( 1.000000000000000000, 0.0000000000000000000, 0.0000000000000000000 ) ) ;
#107 = DIRECTION ( 'NONE',  ( 1.000000000000000000, 0.0000000000000000000, -0.0000000000000000000 ) ) ;
#108 = PERSON_AND_ORGANIZATION_ROLE ( 'creator' ) ;
#109 =( NAMED_UNIT ( * ) SI_UNIT ( $, .STERADIAN. ) SOLID_ANGLE_UNIT ( ) );
#110 = CALENDAR_DATE ( 2018, 21, 12 ) ;
#111 = CIRCLE ( 'NONE', #70, 12.69999999999999900 ) ;
#112 = VERTEX_POINT ( 'NONE', #194 ) ;
#113 = CC_DESIGN_DATE_AND_TIME_ASSIGNMENT ( #133, #95, ( #230 ) ) ;
#114 = APPROVAL_ROLE ( '' ) ;
#115 = EDGE_CURVE ( 'NONE', #171, #223, #167, .T. ) ;
#116 = ORIENTED_EDGE ( 'NONE', *, *, #178, .F. ) ;
#117 = VERTEX_POINT ( 'NONE', #71 ) ;
#118 = APPROVAL ( #198, 'UNSPECIFIED' ) ;
#119 = CARTESIAN_POINT ( 'NONE',  ( 2.793566108890294400E-015, -5.991355816663568300, -3.143011350197192100 ) ) ;
#120 =( BOUNDED_SURFACE ( )  B_SPLINE_SURFACE ( 3, 3, ( 
 ( #4, #169, #126, #53 ),
 ( #193, #192, #175, #174 ),
 ( #177, #127, #54, #88 ),
 ( #207, #90, #226, #160 ) ),
 .UNSPECIFIED., .F., .F., .F. ) 
 B_SPLINE_SURFACE_WITH_KNOTS ( ( 4, 4 ),
 ( 4, 4 ),
 ( 0.0000000000000000000, 1.000000000000000000 ),
 ( 0.0000000000000000000, 1.000000000000000000 ),
 .UNSPECIFIED. ) 
 GEOMETRIC_REPRESENTATION_ITEM ( )  RATIONAL_B_SPLINE_SURFACE ( (
 ( 1.000000000000000000, 0.9245826236614935700, 0.9245826236614935700, 1.000000000000000000),
 ( 0.7122577969178387500, 0.6585411825976506000, 0.6585411825976506000, 0.7122577969178387500),
 ( 0.7122577969178387500, 0.6585411825976506000, 0.6585411825976506000, 0.7122577969178387500),
 ( 1.000000000000000000, 0.9245826236614935700, 0.9245826236614935700, 1.000000000000000000) ) ) 
 REPRESENTATION_ITEM ( '' )  SURFACE ( )  );
#121 = APPROVAL_PERSON_ORGANIZATION ( #190, #21, #131 ) ;
#122 = SHAPE_DEFINITION_REPRESENTATION ( #2, #209 ) ;
#123 = DIRECTION ( 'NONE',  ( 1.000000000000000000, 0.0000000000000000000, 0.0000000000000000000 ) ) ;
#124 = CIRCLE ( 'NONE', #217, 12.69999999999999900 ) ;
#125 = MANIFOLD_SOLID_BREP ( 'Imported1', #17 ) ;
#126 = CARTESIAN_POINT ( 'NONE',  ( -2.946247941500504300, -12.80216968358301300, 6.715903019937645300 ) ) ;
#127 = CARTESIAN_POINT ( 'NONE',  ( -11.75628805419323400, 5.991355816663564800, -0.2644193411945900400 ) ) ;
#128 = PERSON_AND_ORGANIZATION_ROLE ( 'design_owner' ) ;
#129 = PERSON_AND_ORGANIZATION ( #13, #166 ) ;
#130 = EDGE_LOOP ( 'NONE', ( #94, #96 ) ) ;
#131 = APPROVAL_ROLE ( '' ) ;
#132 =( NAMED_UNIT ( * ) PLANE_ANGLE_UNIT ( ) SI_UNIT ( $, .RADIAN. ) );
#133 = DATE_AND_TIME ( #5, #203 ) ;
#134 = FACE_OUTER_BOUND ( 'NONE', #72, .T. ) ;
#135 = CARTESIAN_POINT ( 'NONE',  ( 2.946247941500505200, -12.80216968358301300, 6.715903019937645300 ) ) ;
#136 = PERSON_AND_ORGANIZATION ( #13, #166 ) ;
#137 = LINE ( 'NONE', #140, #214 ) ;
#138 = EDGE_CURVE ( 'NONE', #162, #117, #233, .T. ) ;
#139 = CARTESIAN_POINT ( 'NONE',  ( 11.75628805419323600, 5.991355816663558500, -0.2644193411945935400 ) ) ;
#140 = CARTESIAN_POINT ( 'NONE',  ( -12.69999999999999900, 3.997792089092478900E-015, 6.569805341373300000 ) ) ;
#141 = CARTESIAN_POINT ( 'NONE',  ( 0.0000000000000000000, 26.11199999999999800, 8.500000000000000000 ) ) ;
#142 = PERSON_AND_ORGANIZATION ( #13, #166 ) ;
#143 = PRODUCT_RELATED_PRODUCT_CATEGORY ( 'detail', '', ( #56 ) ) ;
#144 = DIRECTION ( 'NONE',  ( 1.000000000000000000, 0.0000000000000000000, 0.0000000000000000000 ) ) ;
#145 = DIRECTION ( 'NONE',  ( -0.0000000000000000000, -0.0000000000000000000, -1.000000000000000000 ) ) ;
#146 = AXIS2_PLACEMENT_3D ( 'NONE', #40, #73, #151 ) ;
#147 = DIRECTION ( 'NONE',  ( 0.0000000000000000000, 0.0000000000000000000, 1.000000000000000000 ) ) ;
#148 = LOCAL_TIME ( 8, 51, 54.00000000000000000, #208 ) ;
#149 = EDGE_CURVE ( 'NONE', #117, #112, #111, .T. ) ;
#150 = ORIENTED_EDGE ( 'NONE', *, *, #149, .T. ) ;
#151 = DIRECTION ( 'NONE',  ( 1.000000000000000000, 8.881784197001252300E-016, 0.0000000000000000000 ) ) ;
#152 = CALENDAR_DATE ( 2018, 21, 12 ) ;
#153 = FACE_OUTER_BOUND ( 'NONE', #44, .T. ) ;
#154 = ADVANCED_FACE ( 'NONE', ( #59 ), #210, .T. ) ;
#155 = CARTESIAN_POINT ( 'NONE',  ( -12.69999999999999900, 3.997792089092478900E-015, 6.569805341373300000 ) ) ;
#156 = APPROVAL_DATE_TIME ( #7, #118 ) ;
#157 = CC_DESIGN_APPROVAL ( #118, ( #80 ) ) ;
#158 = CARTESIAN_POINT ( 'NONE',  ( 7.247665905264453200, 12.80216968358300500, 10.49152978519006900 ) ) ;
#159 = DIRECTION ( 'NONE',  ( 1.000000000000000000, 0.0000000000000000000, 0.0000000000000000000 ) ) ;
#160 = CARTESIAN_POINT ( 'NONE',  ( 3.469446951953614200E-015, 12.80216968358300800, 6.715903019937641700 ) ) ;
#161 = CARTESIAN_POINT ( 'NONE',  ( -12.69999999999999900, 3.997792089092478900E-015, 8.500000000000000000 ) ) ;
#162 = VERTEX_POINT ( 'NONE', #206 ) ;
#163 = DIRECTION ( 'NONE',  ( 0.0000000000000000000, 0.0000000000000000000, 1.000000000000000000 ) ) ;
#164 = DIRECTION ( 'NONE',  ( 1.000000000000000000, 0.0000000000000000000, 0.0000000000000000000 ) ) ;
#165 = PERSON_AND_ORGANIZATION_ROLE ( 'creator' ) ;
#166 = ORGANIZATION ( 'UNSPECIFIED', 'UNSPECIFIED', '' ) ;
#167 = CIRCLE ( 'NONE', #38, 12.69999999999999900 ) ;
#168 = CIRCLE ( 'NONE', #65, 15.56000000000000000 ) ;
#169 = CARTESIAN_POINT ( 'NONE',  ( -5.559198448314969500, -12.80216968358301000, 8.077103439322680600 ) ) ;
#170 = CARTESIAN_POINT ( 'NONE',  ( 5.559198448314969500, -12.80216968358301700, 8.077103439322678800 ) ) ;
#171 = VERTEX_POINT ( 'NONE', #161 ) ;
#172 = EDGE_CURVE ( 'NONE', #117, #223, #105, .T. ) ;
#173 = CARTESIAN_POINT ( 'NONE',  ( 4.996003610813200500E-016, 2.442490654175340100E-015, 8.500000000000000000 ) ) ;
#174 = CARTESIAN_POINT ( 'NONE',  ( 0.0000000000000000000, -5.991355816663567400, -3.143011350197193000 ) ) ;
#175 = CARTESIAN_POINT ( 'NONE',  ( -6.230563596781199600, -5.991355816663566500, -3.143011350197191700 ) ) ;
#176 = ORIENTED_EDGE ( 'NONE', *, *, #172, .F. ) ;
#177 = CARTESIAN_POINT ( 'NONE',  ( -15.32696644939349500, 5.991355816663564800, 4.841477106206705900 ) ) ;
#178 = EDGE_CURVE ( 'NONE', #43, #162, #42, .T. ) ;
#179 = APPLICATION_CONTEXT ( 'configuration controlled 3d designs of mechanical parts and assemblies' ) ;
#180 = CC_DESIGN_PERSON_AND_ORGANIZATION_ASSIGNMENT ( #8, #128, ( #56 ) ) ;
#181 = EDGE_LOOP ( 'NONE', ( #116, #39, #3, #176, #20 ) ) ;
#182 = SECURITY_CLASSIFICATION_LEVEL ( 'unclassified' ) ;
#183 = COORDINATED_UNIVERSAL_TIME_OFFSET ( 2, 0, .AHEAD. ) ;
#184 = FACE_OUTER_BOUND ( 'NONE', #216, .T. ) ;
#185 = DATE_AND_TIME ( #152, #235 ) ;
#186 = ORIENTED_EDGE ( 'NONE', *, *, #149, .F. ) ;
#187 = AXIS2_PLACEMENT_3D ( 'NONE', #36, #33, #164 ) ;
#188 = CARTESIAN_POINT ( 'NONE',  ( 11.75628805419323400, -5.991355816663572800, -0.2644193411945960900 ) ) ;
#189 = CARTESIAN_POINT ( 'NONE',  ( 6.230563596781205000, 5.991355816663561200, -3.143011350197189900 ) ) ;
#190 = PERSON_AND_ORGANIZATION ( #13, #166 ) ;
#191 = ORIENTED_EDGE ( 'NONE', *, *, #172, .T. ) ;
#192 = CARTESIAN_POINT ( 'NONE',  ( -11.75628805419323400, -5.991355816663566500, -0.2644193411945918200 ) ) ;
#193 = CARTESIAN_POINT ( 'NONE',  ( -15.32696644939349500, -5.991355816663566500, 4.841477106206702400 ) ) ;
#194 = CARTESIAN_POINT ( 'NONE',  ( 8.954121401390816000E-016, -12.69999999999999900, 6.569805341373299100 ) ) ;
#195 = AXIS2_PLACEMENT_3D ( 'NONE', #141, #29, #107 ) ;
#196 = DIRECTION ( 'NONE',  ( 1.000000000000000000, 0.0000000000000000000, 0.0000000000000000000 ) ) ;
#197 = CIRCLE ( 'NONE', #45, 12.69999999999999900 ) ;
#198 = APPROVAL_STATUS ( 'not_yet_approved' ) ;
#199 = CARTESIAN_POINT ( 'NONE',  ( 12.69999999999999900, 2.442490654175340100E-015, 8.500000000000000000 ) ) ;
#200 =( GEOMETRIC_REPRESENTATION_CONTEXT ( 3 ) GLOBAL_UNCERTAINTY_ASSIGNED_CONTEXT ( ( #83 ) ) GLOBAL_UNIT_ASSIGNED_CONTEXT ( ( #60, #132, #109 ) ) REPRESENTATION_CONTEXT ( 'NONE', 'WORKASPACE' ) );
#201 = ORIENTED_EDGE ( 'NONE', *, *, #138, .T. ) ;
#202 = CARTESIAN_POINT ( 'NONE',  ( 15.32696644939349700, -5.991355816663574500, 4.841477106206697000 ) ) ;
#203 = LOCAL_TIME ( 8, 51, 54.00000000000000000, #91 ) ;
#204 = CC_DESIGN_PERSON_AND_ORGANIZATION_ASSIGNMENT ( #142, #108, ( #50 ) ) ;
#205 = ORIENTED_EDGE ( 'NONE', *, *, #46, .T. ) ;
#206 = CARTESIAN_POINT ( 'NONE',  ( 6.824780955136940200E-015, 12.69999999999999900, 6.569805341373299100 ) ) ;
#207 = CARTESIAN_POINT ( 'NONE',  ( -7.247665905264442500, 12.80216968358301000, 10.49152978519007100 ) ) ;
#208 = COORDINATED_UNIVERSAL_TIME_OFFSET ( 2, 0, .AHEAD. ) ;
#209 = ADVANCED_BREP_SHAPE_REPRESENTATION ( '110-0205E BK7 pl-cx 25.4 F30', ( #125, #102 ), #200 ) ;
#210 = PLANE ( 'NONE',  #195 ) ;
#211 = CC_DESIGN_PERSON_AND_ORGANIZATION_ASSIGNMENT ( #55, #165, ( #80 ) ) ;
#212 = CARTESIAN_POINT ( 'NONE',  ( 4.996003610813200500E-016, 2.442490654175340100E-015, 6.569805341373300000 ) ) ;
#213 = DATE_AND_TIME ( #98, #104 ) ;
#214 = VECTOR ( 'NONE', #28, 1000.000000000000000 ) ;
#215 = APPROVAL_STATUS ( 'not_yet_approved' ) ;
#216 = EDGE_LOOP ( 'NONE', ( #150, #52, #201 ) ) ;
#217 = AXIS2_PLACEMENT_3D ( 'NONE', #81, #35, #228 ) ;
#218 = DATE_AND_TIME ( #49, #66 ) ;
#219 = APPROVAL ( #215, 'UNSPECIFIED' ) ;
#220 = ADVANCED_FACE ( 'NONE', ( #221 ), #76, .T. ) ;
#221 = FACE_OUTER_BOUND ( 'NONE', #181, .T. ) ;
#222 = CARTESIAN_POINT ( 'NONE',  ( 3.552713678800500100E-015, 0.0000000000000000000, 15.56000000000000000 ) ) ;
#223 = VERTEX_POINT ( 'NONE', #199 ) ;
#224 = CARTESIAN_POINT ( 'NONE',  ( 5.590806922975411000E-015, 5.991355816663562100, -3.143011350197190400 ) ) ;
#225 = CARTESIAN_POINT ( 'NONE',  ( 6.843636205691245700E-015, 12.80216968358300800, 6.715903019937642600 ) ) ;
#226 = CARTESIAN_POINT ( 'NONE',  ( -2.946247941500504300, 12.80216968358300800, 6.715903019937643500 ) ) ;
#227 = CARTESIAN_POINT ( 'NONE',  ( 12.69999999999999900, 2.442490654175340100E-015, 6.569805341373300000 ) ) ;
#228 = DIRECTION ( 'NONE',  ( 1.000000000000000000, 0.0000000000000000000, 0.0000000000000000000 ) ) ;
#229 = ORIENTED_EDGE ( 'NONE', *, *, #19, .F. ) ;
#230 = SECURITY_CLASSIFICATION ( '', '', #182 ) ;
#231 = APPROVAL_STATUS ( 'not_yet_approved' ) ;
#232 = APPROVAL_PERSON_ORGANIZATION ( #129, #219, #114 ) ;
#233 = CIRCLE ( 'NONE', #61, 12.69999999999999900 ) ;
#234 = ORIENTED_EDGE ( 'NONE', *, *, #46, .F. ) ;
#235 = LOCAL_TIME ( 8, 51, 54.00000000000000000, #62 ) ;
ENDSEC;
END-ISO-10303-21;
