ISO-10303-21;
HEADER;
FILE_DESCRIPTION (( 'STEP AP203' ),
    '1' );
FILE_NAME ('110-0145E BK7 pl-cx 12.7 F1500.STEP',
    '2018-12-21T06:28:20',
    ( '' ),
    ( '' ),
    'SwSTEP 2.0',
    'SolidWorks 2017',
    '' );
FILE_SCHEMA (( 'CONFIG_CONTROL_DESIGN' ));
ENDSEC;

DATA;
#1 = CARTESIAN_POINT ( 'NONE',  ( -4.258629355471105000, 6.426198277302713500, 0.03528224544719046900 ) ) ;
#2 = COORDINATED_UNIVERSAL_TIME_OFFSET ( 2, 0, .AHEAD. ) ;
#3 = AXIS2_PLACEMENT_3D ( 'NONE', #26, #12, #91 ) ;
#4 = EDGE_LOOP ( 'NONE', ( #171, #109, #167, #88, #209 ) ) ;
#5 = EDGE_CURVE ( 'NONE', #126, #20, #27, .T. ) ;
#6 = DATE_AND_TIME ( #174, #124 ) ;
#7 = CC_DESIGN_DATE_AND_TIME_ASSIGNMENT ( #6, #202, ( #111 ) ) ;
#8 = CC_DESIGN_PERSON_AND_ORGANIZATION_ASSIGNMENT ( #68, #99, ( #194 ) ) ;
#9 = CARTESIAN_POINT ( 'NONE',  ( 2.498001805406600200E-016, 1.221245327087670000E-015, 2.100000000000000100 ) ) ;
#10 = CARTESIAN_POINT ( 'NONE',  ( 6.388171788128123500, -2.142114809143544500, 0.01737986715159469900 ) ) ;
#11 = DIRECTION ( 'NONE',  ( 1.000000000000000000, 0.0000000000000000000, 0.0000000000000000000 ) ) ;
#12 = DIRECTION ( 'NONE',  ( 0.0000000000000000000, 0.0000000000000000000, 1.000000000000000000 ) ) ;
#13 = DIRECTION ( 'NONE',  ( -0.0000000000000000000, -0.0000000000000000000, -1.000000000000000000 ) ) ;
#14 = PERSON_AND_ORGANIZATION_ROLE ( 'design_supplier' ) ;
#15 = VERTEX_POINT ( 'NONE', #230 ) ;
#16 = CARTESIAN_POINT ( 'NONE',  ( -2.129420505738038200, -2.142114809143543100, -0.008846972556315644400 ) ) ;
#17 = COORDINATED_UNIVERSAL_TIME_OFFSET ( 2, 0, .AHEAD. ) ;
#18 = FACE_OUTER_BOUND ( 'NONE', #4, .T. ) ;
#19 = PERSON_AND_ORGANIZATION ( #213, #157 ) ;
#20 = VERTEX_POINT ( 'NONE', #133 ) ;
#21 = DIRECTION ( 'NONE',  ( 0.0000000000000000000, 0.0000000000000000000, 1.000000000000000000 ) ) ;
#22 = EDGE_CURVE ( 'NONE', #173, #59, #125, .T. ) ;
#23 = DIRECTION ( 'NONE',  ( 0.0000000000000000000, 0.0000000000000000000, 1.000000000000000000 ) ) ;
#24 = CARTESIAN_POINT ( 'NONE',  ( -6.349999999999999600, 1.998896044546239400E-015, 0.02591463468410469900 ) ) ;
#25 = COORDINATED_UNIVERSAL_TIME_OFFSET ( 2, 0, .AHEAD. ) ;
#26 = CARTESIAN_POINT ( 'NONE',  ( 2.498001805406600200E-016, 1.221245327087670000E-015, 0.02591463468410469900 ) ) ;
#27 = CIRCLE ( 'NONE', #193, 6.349999999999999600 ) ;
#28 = CARTESIAN_POINT ( 'NONE',  ( -6.387881225794737700, -6.426198277302657600, 0.05276596086167817400 ) ) ;
#29 = DIRECTION ( 'NONE',  ( 1.000000000000000000, 0.0000000000000000000, 0.0000000000000000000 ) ) ;
#30 = CARTESIAN_POINT ( 'NONE',  ( -2.129323650266446300, -6.426198277302658500, 0.02654031406657104600 ) ) ;
#31 = APPLICATION_PROTOCOL_DEFINITION ( 'international standard', 'config_control_design', 1994, #50 ) ;
#32 = LINE ( 'NONE', #24, #143 ) ;
#33 = APPLICATION_CONTEXT ( 'configuration controlled 3d designs of mechanical parts and assemblies' ) ;
#34 = PERSON_AND_ORGANIZATION ( #213, #157 ) ;
#35 = ORIENTED_EDGE ( 'NONE', *, *, #136, .T. ) ;
#36 = EDGE_CURVE ( 'NONE', #59, #84, #218, .T. ) ;
#37 = APPROVAL_DATE_TIME ( #49, #129 ) ;
#38 = CYLINDRICAL_SURFACE ( 'NONE', #102, 6.349999999999999600 ) ;
#39 = CALENDAR_DATE ( 2018, 21, 12 ) ;
#40 = DIRECTION ( 'NONE',  ( 0.0000000000000000000, 0.0000000000000000000, 1.000000000000000000 ) ) ;
#41 = CARTESIAN_POINT ( 'NONE',  ( 4.258823065597607800, 2.142114809143595100, -0.0001046435358471674800 ) ) ;
#42 = CARTESIAN_POINT ( 'NONE',  ( -4.263697744009650800E-013, 6.350000000011829300, 0.02591463468418503000 ) ) ;
#43 = DIRECTION ( 'NONE',  ( 1.000000000000000000, 0.0000000000000000000, 0.0000000000000000000 ) ) ;
#44 = DIRECTION ( 'NONE',  ( -0.0000000000000000000, -0.0000000000000000000, -1.000000000000000000 ) ) ;
#45 =( LENGTH_UNIT ( ) NAMED_UNIT ( * ) SI_UNIT ( .MILLI., .METRE. ) );
#46 = DIRECTION ( 'NONE',  ( 1.000000000000000000, 8.881784197001252300E-016, 0.0000000000000000000 ) ) ;
#47 = CARTESIAN_POINT ( 'NONE',  ( -4.258823065598033300, 2.142114809143597800, -0.0001046435358701864600 ) ) ;
#48 = CARTESIAN_POINT ( 'NONE',  ( -2.129420505738037300, 2.142114809143596900, -0.008846972556315942800 ) ) ;
#49 = DATE_AND_TIME ( #39, #135 ) ;
#50 = APPLICATION_CONTEXT ( 'configuration controlled 3d designs of mechanical parts and assemblies' ) ;
#51 = ADVANCED_BREP_SHAPE_REPRESENTATION ( '110-0145E BK7 pl-cx 12.7 F1500', ( #106, #152 ), #183 ) ;
#52 = ORIENTED_EDGE ( 'NONE', *, *, #5, .F. ) ;
#53 = APPROVAL_DATE_TIME ( #107, #224 ) ;
#54 = CARTESIAN_POINT ( 'NONE',  ( 0.0000000000000000000, 13.15799999999999900, 2.100000000000000100 ) ) ;
#55 = CARTESIAN_POINT ( 'NONE',  ( 2.498001805406600200E-016, 1.221245327087670000E-015, 0.02591463468410469900 ) ) ;
#56 = CARTESIAN_POINT ( 'NONE',  ( 6.387881225794618700, -6.426198277302661100, 0.05276596086170467400 ) ) ;
#57 = COORDINATED_UNIVERSAL_TIME_OFFSET ( 2, 0, .AHEAD. ) ;
#58 = CARTESIAN_POINT ( 'NONE',  ( -4.301871771370955700E-013, -6.426198277302659400, 0.02654031406656987000 ) ) ;
#59 = VERTEX_POINT ( 'NONE', #42 ) ;
#60 = CARTESIAN_POINT ( 'NONE',  ( -6.388171788128239800, -2.142114809143540900, 0.01737986715156820300 ) ) ;
#61 = CARTESIAN_POINT ( 'NONE',  ( 0.0000000000000000000, 0.0000000000000000000, 0.0000000000000000000 ) ) ;
#62 = EDGE_LOOP ( 'NONE', ( #225, #69, #148 ) ) ;
#63 = APPROVAL_ROLE ( '' ) ;
#64 = AXIS2_PLACEMENT_3D ( 'NONE', #117, #77, #141 ) ;
#65 = PERSON_AND_ORGANIZATION ( #213, #157 ) ;
#66 =( BOUNDED_SURFACE ( )  B_SPLINE_SURFACE ( 3, 3, ( 
 ( #58, #217, #178, #56 ),
 ( #158, #94, #199, #10 ),
 ( #93, #198, #41, #116 ),
 ( #184, #137, #200, #76 ) ),
 .UNSPECIFIED., .F., .F., .F. ) 
 B_SPLINE_SURFACE_WITH_KNOTS ( ( 4, 4 ),
 ( 4, 4 ),
 ( 0.0000000000000000000, 1.000000000000000000 ),
 ( 0.0000000000000000000, 1.000000000000000000 ),
 .UNSPECIFIED. ) 
 GEOMETRIC_REPRESENTATION_ITEM ( )  RATIONAL_B_SPLINE_SURFACE ( (
 ( 1.000000000000000000, 0.9999943816084000400, 0.9999943816084000400, 1.000000000000000000),
 ( 0.9999772576571837000, 0.9999716393933590900, 0.9999716393933590900, 0.9999772576571837000),
 ( 0.9999772576571837000, 0.9999716393933590900, 0.9999716393933590900, 0.9999772576571837000),
 ( 1.000000000000000000, 0.9999943816084000400, 0.9999943816084000400, 1.000000000000000000) ) ) 
 REPRESENTATION_ITEM ( '' )  SURFACE ( )  );
#67 = CC_DESIGN_DATE_AND_TIME_ASSIGNMENT ( #192, #186, ( #154 ) ) ;
#68 = PERSON_AND_ORGANIZATION ( #213, #157 ) ;
#69 = ORIENTED_EDGE ( 'NONE', *, *, #82, .T. ) ;
#70 = CARTESIAN_POINT ( 'NONE',  ( 2.498001805406600200E-016, 1.221245327087670000E-015, 0.02591463468410469900 ) ) ;
#71 = CALENDAR_DATE ( 2018, 21, 12 ) ;
#72 = DIRECTION ( 'NONE',  ( -0.0000000000000000000, -0.0000000000000000000, -1.000000000000000000 ) ) ;
#73 = CARTESIAN_POINT ( 'NONE',  ( 6.349999999999999600, 1.221245327087670000E-015, 0.02591463468410469900 ) ) ;
#74 = DIRECTION ( 'NONE',  ( 1.000000000000000000, 0.0000000000000000000, 0.0000000000000000000 ) ) ;
#75 = FACE_OUTER_BOUND ( 'NONE', #175, .T. ) ;
#76 = CARTESIAN_POINT ( 'NONE',  ( 6.387881225794622300, 6.426198277302710900, 0.05276596086170467400 ) ) ;
#77 = DIRECTION ( 'NONE',  ( -0.0000000000000000000, -0.0000000000000000000, -1.000000000000000000 ) ) ;
#78 = CARTESIAN_POINT ( 'NONE',  ( -6.388171788128238900, 2.142114809143597300, 0.01737986715156791100 ) ) ;
#79 = PERSON_AND_ORGANIZATION_ROLE ( 'creator' ) ;
#80 = ORIENTED_EDGE ( 'NONE', *, *, #179, .T. ) ;
#81 = DIRECTION ( 'NONE',  ( 0.0000000000000000000, 0.0000000000000000000, 1.000000000000000000 ) ) ;
#82 = EDGE_CURVE ( 'NONE', #15, #59, #132, .T. ) ;
#83 = PERSON_AND_ORGANIZATION ( #213, #157 ) ;
#84 = VERTEX_POINT ( 'NONE', #96 ) ;
#85 = CIRCLE ( 'NONE', #139, 6.349999999999999600 ) ;
#86 = ADVANCED_FACE ( 'NONE', ( #18 ), #38, .T. ) ;
#87 = COORDINATED_UNIVERSAL_TIME_OFFSET ( 2, 0, .AHEAD. ) ;
#88 = ORIENTED_EDGE ( 'NONE', *, *, #172, .T. ) ;
#89 = DESIGN_CONTEXT ( 'detailed design', #50, 'design' ) ;
#90 = CC_DESIGN_PERSON_AND_ORGANIZATION_ASSIGNMENT ( #101, #121, ( #228 ) ) ;
#91 = DIRECTION ( 'NONE',  ( 1.000000000000000000, 0.0000000000000000000, 0.0000000000000000000 ) ) ;
#92 = EDGE_CURVE ( 'NONE', #84, #15, #85, .T. ) ;
#93 = CARTESIAN_POINT ( 'NONE',  ( -4.276360788045559800E-013, 2.142114809143595500, -0.008846972556317110300 ) ) ;
#94 = CARTESIAN_POINT ( 'NONE',  ( 2.129420505737300100, -2.142114809143544000, -0.008846972556317370500 ) ) ;
#95 = AXIS2_PLACEMENT_3D ( 'NONE', #97, #120, #156 ) ;
#96 = CARTESIAN_POINT ( 'NONE',  ( 6.349999999999999600, 1.221245327087670000E-015, 0.02591463468410469900 ) ) ;
#97 = CARTESIAN_POINT ( 'NONE',  ( -2.273736754432320100E-013, 0.0000000000000000000, 778.0000000000000000 ) ) ;
#98 = EDGE_LOOP ( 'NONE', ( #203, #196, #80, #153, #176 ) ) ;
#99 = PERSON_AND_ORGANIZATION_ROLE ( 'creator' ) ;
#100 = SECURITY_CLASSIFICATION_LEVEL ( 'unclassified' ) ;
#101 = PERSON_AND_ORGANIZATION ( #213, #157 ) ;
#102 = AXIS2_PLACEMENT_3D ( 'NONE', #214, #21, #43 ) ;
#103 = CALENDAR_DATE ( 2018, 21, 12 ) ;
#104 = CC_DESIGN_PERSON_AND_ORGANIZATION_ASSIGNMENT ( #34, #123, ( #111 ) ) ;
#105 = ADVANCED_FACE ( 'NONE', ( #235 ), #162, .T. ) ;
#106 = MANIFOLD_SOLID_BREP ( 'Imported1', #187 ) ;
#107 = DATE_AND_TIME ( #103, #160 ) ;
#108 = PRODUCT_DEFINITION_SHAPE ( 'NONE', 'NONE',  #154 ) ;
#109 = ORIENTED_EDGE ( 'NONE', *, *, #136, .F. ) ;
#110 = AXIS2_PLACEMENT_3D ( 'NONE', #161, #221, #140 ) ;
#111 = SECURITY_CLASSIFICATION ( '', '', #100 ) ;
#112 = PLANE ( 'NONE',  #206 ) ;
#113 = CC_DESIGN_PERSON_AND_ORGANIZATION_ASSIGNMENT ( #83, #79, ( #154 ) ) ;
#114 = CARTESIAN_POINT ( 'NONE',  ( 6.349999999999999600, 1.221245327087670000E-015, 2.100000000000000100 ) ) ;
#115 = PERSON_AND_ORGANIZATION ( #213, #157 ) ;
#116 = CARTESIAN_POINT ( 'NONE',  ( 6.388171788128124400, 2.142114809143594200, 0.01737986715159440700 ) ) ;
#117 = CARTESIAN_POINT ( 'NONE',  ( 2.498001805406600200E-016, 1.221245327087670000E-015, 0.02591463468410469900 ) ) ;
#118 = ORIENTED_EDGE ( 'NONE', *, *, #22, .T. ) ;
#119 = APPROVAL_STATUS ( 'not_yet_approved' ) ;
#120 = DIRECTION ( 'NONE',  ( 1.000000000000000000, -2.988028379211529900E-016, -2.582264637827899900E-016 ) ) ;
#121 = PERSON_AND_ORGANIZATION_ROLE ( 'design_owner' ) ;
#122 = FACE_OUTER_BOUND ( 'NONE', #223, .T. ) ;
#123 = PERSON_AND_ORGANIZATION_ROLE ( 'classification_officer' ) ;
#124 = LOCAL_TIME ( 8, 28, 20.00000000000000000, #87 ) ;
#125 = CIRCLE ( 'NONE', #208, 6.349999999999999600 ) ;
#126 = VERTEX_POINT ( 'NONE', #114 ) ;
#127 = APPROVAL ( #145, 'UNSPECIFIED' ) ;
#128 = CALENDAR_DATE ( 2018, 21, 12 ) ;
#129 = APPROVAL ( #119, 'UNSPECIFIED' ) ;
#130 = ORIENTED_EDGE ( 'NONE', *, *, #179, .F. ) ;
#131 = ADVANCED_FACE ( 'NONE', ( #122 ), #112, .T. ) ;
#132 = CIRCLE ( 'NONE', #95, 778.0000000000000000 ) ;
#133 = CARTESIAN_POINT ( 'NONE',  ( -6.349999999999999600, 1.998896044546239400E-015, 2.100000000000000100 ) ) ;
#134 = CARTESIAN_POINT ( 'NONE',  ( -4.258629355471107700, -6.426198277302658500, 0.03528224544719046900 ) ) ;
#135 = LOCAL_TIME ( 8, 28, 20.00000000000000000, #25 ) ;
#136 = EDGE_CURVE ( 'NONE', #15, #173, #232, .T. ) ;
#137 = CARTESIAN_POINT ( 'NONE',  ( 2.129323650265709600, 6.426198277302711800, 0.02654031406656932900 ) ) ;
#138 = DIRECTION ( 'NONE',  ( 0.0000000000000000000, 0.0000000000000000000, 1.000000000000000000 ) ) ;
#139 = AXIS2_PLACEMENT_3D ( 'NONE', #70, #13, #11 ) ;
#140 = DIRECTION ( 'NONE',  ( 1.000000000000000000, 0.0000000000000000000, 0.0000000000000000000 ) ) ;
#141 = DIRECTION ( 'NONE',  ( 1.000000000000000000, -8.881784197001252300E-016, 0.0000000000000000000 ) ) ;
#142 = CARTESIAN_POINT ( 'NONE',  ( -6.201636426617083300E-013, -2.142114809143542700, -0.008846972556316718200 ) ) ;
#143 = VECTOR ( 'NONE', #40, 1000.000000000000000 ) ;
#144 =( NAMED_UNIT ( * ) SI_UNIT ( $, .STERADIAN. ) SOLID_ANGLE_UNIT ( ) );
#145 = APPROVAL_STATUS ( 'not_yet_approved' ) ;
#146 = LOCAL_TIME ( 8, 28, 20.00000000000000000, #2 ) ;
#147 = CC_DESIGN_APPROVAL ( #224, ( #111 ) ) ;
#148 = ORIENTED_EDGE ( 'NONE', *, *, #36, .T. ) ;
#149 = EDGE_CURVE ( 'NONE', #173, #20, #32, .T. ) ;
#150 = ADVANCED_FACE ( 'NONE', ( #212 ), #66, .T. ) ;
#151 = CC_DESIGN_PERSON_AND_ORGANIZATION_ASSIGNMENT ( #19, #14, ( #194 ) ) ;
#152 = AXIS2_PLACEMENT_3D ( 'NONE', #61, #81, #29 ) ;
#153 = ORIENTED_EDGE ( 'NONE', *, *, #172, .F. ) ;
#154 = PRODUCT_DEFINITION ( 'UNKNOWN', '', #194, #89 ) ;
#155 = PRODUCT_RELATED_PRODUCT_CATEGORY ( 'detail', '', ( #228 ) ) ;
#156 = DIRECTION ( 'NONE',  ( -2.988028379211528500E-016, -1.000000000000000000, 5.708087530206460600E-016 ) ) ;
#157 = ORGANIZATION ( 'UNSPECIFIED', 'UNSPECIFIED', '' ) ;
#158 = CARTESIAN_POINT ( 'NONE',  ( -4.289162187728059700E-013, -2.142114809143542700, -0.008846972556316820600 ) ) ;
#159 = AXIS2_PLACEMENT_3D ( 'NONE', #55, #226, #231 ) ;
#160 = LOCAL_TIME ( 8, 28, 20.00000000000000000, #57 ) ;
#161 = CARTESIAN_POINT ( 'NONE',  ( 2.498001805406600200E-016, 1.221245327087670000E-015, 2.100000000000000100 ) ) ;
#162 = CYLINDRICAL_SURFACE ( 'NONE', #3, 6.349999999999999600 ) ;
#163 = APPROVAL_ROLE ( '' ) ;
#164 = CARTESIAN_POINT ( 'NONE',  ( -4.258823065598034100, -2.142114809143542200, -0.0001046435358698950800 ) ) ;
#165 = APPROVAL_ROLE ( '' ) ;
#166 = CARTESIAN_POINT ( 'NONE',  ( -6.218983661376853400E-013, -6.426198277302659400, 0.02654031406656996400 ) ) ;
#167 = ORIENTED_EDGE ( 'NONE', *, *, #92, .F. ) ;
#168 = MECHANICAL_CONTEXT ( 'NONE', #33, 'mechanical' ) ;
#169 = APPROVAL_PERSON_ORGANIZATION ( #65, #224, #63 ) ;
#170 = CC_DESIGN_SECURITY_CLASSIFICATION ( #111, ( #194 ) ) ;
#171 = ORIENTED_EDGE ( 'NONE', *, *, #149, .F. ) ;
#172 = EDGE_CURVE ( 'NONE', #84, #126, #190, .T. ) ;
#173 = VERTEX_POINT ( 'NONE', #201 ) ;
#174 = CALENDAR_DATE ( 2018, 21, 12 ) ;
#175 = EDGE_LOOP ( 'NONE', ( #185, #35, #118 ) ) ;
#176 = ORIENTED_EDGE ( 'NONE', *, *, #36, .F. ) ;
#177 = DIRECTION ( 'NONE',  ( 1.000000000000000000, 0.0000000000000000000, -0.0000000000000000000 ) ) ;
#178 = CARTESIAN_POINT ( 'NONE',  ( 4.258629355470678700, -6.426198277302660200, 0.03528224544721348500 ) ) ;
#179 = EDGE_CURVE ( 'NONE', #20, #126, #220, .T. ) ;
#180 = UNCERTAINTY_MEASURE_WITH_UNIT (LENGTH_MEASURE( 1.000000000000000100E-005 ), #45, 'distance_accuracy_value', 'NONE');
#181 = APPROVAL_PERSON_ORGANIZATION ( #227, #127, #165 ) ;
#182 = CARTESIAN_POINT ( 'NONE',  ( 2.498001805406600200E-016, 1.221245327087670000E-015, 0.02591463468410469900 ) ) ;
#183 =( GEOMETRIC_REPRESENTATION_CONTEXT ( 3 ) GLOBAL_UNCERTAINTY_ASSIGNED_CONTEXT ( ( #180 ) ) GLOBAL_UNIT_ASSIGNED_CONTEXT ( ( #45, #234, #144 ) ) REPRESENTATION_CONTEXT ( 'NONE', 'WORKASPACE' ) );
#184 = CARTESIAN_POINT ( 'NONE',  ( -4.263468445724915100E-013, 6.426198277302711800, 0.02654031406656987000 ) ) ;
#185 = ORIENTED_EDGE ( 'NONE', *, *, #82, .F. ) ;
#186 = DATE_TIME_ROLE ( 'creation_date' ) ;
#187 = CLOSED_SHELL ( 'NONE', ( #150, #105, #195, #86, #131 ) ) ;
#188 = APPROVAL_PERSON_ORGANIZATION ( #115, #129, #163 ) ;
#189 = APPROVAL_STATUS ( 'not_yet_approved' ) ;
#190 = LINE ( 'NONE', #73, #191 ) ;
#191 = VECTOR ( 'NONE', #138, 1000.000000000000000 ) ;
#192 = DATE_AND_TIME ( #128, #222 ) ;
#193 = AXIS2_PLACEMENT_3D ( 'NONE', #9, #72, #74 ) ;
#194 = PRODUCT_DEFINITION_FORMATION_WITH_SPECIFIED_SOURCE ( 'ANY', '', #228, .NOT_KNOWN. ) ;
#195 = ADVANCED_FACE ( 'NONE', ( #75 ), #211, .T. ) ;
#196 = ORIENTED_EDGE ( 'NONE', *, *, #149, .T. ) ;
#197 = SHAPE_DEFINITION_REPRESENTATION ( #108, #51 ) ;
#198 = CARTESIAN_POINT ( 'NONE',  ( 2.129420505737301000, 2.142114809143596000, -0.008846972556317661900 ) ) ;
#199 = CARTESIAN_POINT ( 'NONE',  ( 4.258823065597606000, -2.142114809143544500, -0.0001046435358468795000 ) ) ;
#200 = CARTESIAN_POINT ( 'NONE',  ( 4.258629355470682200, 6.426198277302711800, 0.03528224544721348500 ) ) ;
#201 = CARTESIAN_POINT ( 'NONE',  ( -6.349999999999999600, 1.998896044546239400E-015, 0.02591463468410469900 ) ) ;
#202 = DATE_TIME_ROLE ( 'classification_date' ) ;
#203 = ORIENTED_EDGE ( 'NONE', *, *, #22, .F. ) ;
#204 = APPLICATION_PROTOCOL_DEFINITION ( 'international standard', 'config_control_design', 1994, #33 ) ;
#205 = CARTESIAN_POINT ( 'NONE',  ( -6.192962809237200300E-013, 2.142114809143595500, -0.008846972556317016600 ) ) ;
#206 = AXIS2_PLACEMENT_3D ( 'NONE', #54, #23, #177 ) ;
#207 = CARTESIAN_POINT ( 'NONE',  ( -6.184289191857317300E-013, 6.426198277302711800, 0.02654031406656996400 ) ) ;
#208 = AXIS2_PLACEMENT_3D ( 'NONE', #182, #44, #46 ) ;
#209 = ORIENTED_EDGE ( 'NONE', *, *, #5, .T. ) ;
#210 = DATE_AND_TIME ( #71, #146 ) ;
#211 =( BOUNDED_SURFACE ( )  B_SPLINE_SURFACE ( 3, 3, ( 
 ( #28, #134, #30, #166 ),
 ( #60, #164, #16, #142 ),
 ( #78, #47, #48, #205 ),
 ( #219, #1, #233, #207 ) ),
 .UNSPECIFIED., .F., .F., .F. ) 
 B_SPLINE_SURFACE_WITH_KNOTS ( ( 4, 4 ),
 ( 4, 4 ),
 ( 0.0000000000000000000, 1.000000000000000000 ),
 ( 0.0000000000000000000, 1.000000000000000000 ),
 .UNSPECIFIED. ) 
 GEOMETRIC_REPRESENTATION_ITEM ( )  RATIONAL_B_SPLINE_SURFACE ( (
 ( 1.000000000000000000, 0.9999943816084000400, 0.9999943816084000400, 1.000000000000000000),
 ( 0.9999772576571837000, 0.9999716393933590900, 0.9999716393933590900, 0.9999772576571837000),
 ( 0.9999772576571837000, 0.9999716393933590900, 0.9999716393933590900, 0.9999772576571837000),
 ( 1.000000000000000000, 0.9999943816084000400, 0.9999943816084000400, 1.000000000000000000) ) ) 
 REPRESENTATION_ITEM ( '' )  SURFACE ( )  );
#212 = FACE_OUTER_BOUND ( 'NONE', #62, .T. ) ;
#213 = PERSON ( 'UNSPECIFIED', 'UNSPECIFIED', 'UNSPECIFIED', ('UNSPECIFIED'), ('UNSPECIFIED'), ('UNSPECIFIED') ) ;
#214 = CARTESIAN_POINT ( 'NONE',  ( 2.498001805406600200E-016, 1.221245327087670000E-015, 0.02591463468410469900 ) ) ;
#215 = APPROVAL_DATE_TIME ( #210, #127 ) ;
#216 = CC_DESIGN_APPROVAL ( #129, ( #154 ) ) ;
#217 = CARTESIAN_POINT ( 'NONE',  ( 2.129323650265705600, -6.426198277302660200, 0.02654031406656932900 ) ) ;
#218 = CIRCLE ( 'NONE', #64, 6.349999999999999600 ) ;
#219 = CARTESIAN_POINT ( 'NONE',  ( -6.387881225794734200, 6.426198277302713500, 0.05276596086167817400 ) ) ;
#220 = CIRCLE ( 'NONE', #110, 6.349999999999999600 ) ;
#221 = DIRECTION ( 'NONE',  ( -0.0000000000000000000, -0.0000000000000000000, -1.000000000000000000 ) ) ;
#222 = LOCAL_TIME ( 8, 28, 20.00000000000000000, #17 ) ;
#223 = EDGE_LOOP ( 'NONE', ( #52, #130 ) ) ;
#224 = APPROVAL ( #189, 'UNSPECIFIED' ) ;
#225 = ORIENTED_EDGE ( 'NONE', *, *, #92, .T. ) ;
#226 = DIRECTION ( 'NONE',  ( -0.0000000000000000000, -0.0000000000000000000, -1.000000000000000000 ) ) ;
#227 = PERSON_AND_ORGANIZATION ( #213, #157 ) ;
#228 = PRODUCT ( '110-0145E BK7 pl-cx 12.7 F1500', '110-0145E BK7 pl-cx 12.7 F1500', '', ( #168 ) ) ;
#229 = CC_DESIGN_APPROVAL ( #127, ( #194 ) ) ;
#230 = CARTESIAN_POINT ( 'NONE',  ( -4.301645704425707900E-013, -6.350000000011828400, 0.02591463468418503000 ) ) ;
#231 = DIRECTION ( 'NONE',  ( 1.000000000000000000, 0.0000000000000000000, 0.0000000000000000000 ) ) ;
#232 = CIRCLE ( 'NONE', #159, 6.349999999999999600 ) ;
#233 = CARTESIAN_POINT ( 'NONE',  ( -2.129323650266443200, 6.426198277302713500, 0.02654031406657104600 ) ) ;
#234 =( NAMED_UNIT ( * ) PLANE_ANGLE_UNIT ( ) SI_UNIT ( $, .RADIAN. ) );
#235 = FACE_OUTER_BOUND ( 'NONE', #98, .T. ) ;
ENDSEC;
END-ISO-10303-21;
