ISO-10303-21;
HEADER;
FILE_DESCRIPTION (( 'STEP AP203' ),
    '1' );
FILE_NAME ('110-0135E BK7 pl-cx 12.7 F1000.STEP',
    '2018-12-21T06:28:37',
    ( '' ),
    ( '' ),
    'SwSTEP 2.0',
    'SolidWorks 2017',
    '' );
FILE_SCHEMA (( 'CONFIG_CONTROL_DESIGN' ));
ENDSEC;

DATA;
#1 = CARTESIAN_POINT ( 'NONE',  ( 6.349999999999999600, 1.221245327087670000E-015, 2.100000000000000100 ) ) ;
#2 = CC_DESIGN_APPROVAL ( #187, ( #150 ) ) ;
#3 = CARTESIAN_POINT ( 'NONE',  ( 2.129487795242256600, 2.142174978607990000, -0.01327025719795348200 ) ) ;
#4 = DIRECTION ( 'NONE',  ( 1.000000000000000000, 0.0000000000000000000, 0.0000000000000000000 ) ) ;
#5 = DIRECTION ( 'NONE',  ( 1.000000000000000000, 0.0000000000000000000, 0.0000000000000000000 ) ) ;
#6 = CARTESIAN_POINT ( 'NONE',  ( -6.349999999999999600, 1.998896044546239400E-015, 0.03887026305894610000 ) ) ;
#7 = CARTESIAN_POINT ( 'NONE',  ( -6.388261510456989500, -2.142174978607957100, 0.02606884884702327700 ) ) ;
#8 = DATE_TIME_ROLE ( 'classification_date' ) ;
#9 = COORDINATED_UNIVERSAL_TIME_OFFSET ( 2, 0, .AHEAD. ) ;
#10 = CALENDAR_DATE ( 2018, 21, 12 ) ;
#11 = SHAPE_DEFINITION_REPRESENTATION ( #37, #147 ) ;
#12 = AXIS2_PLACEMENT_3D ( 'NONE', #175, #40, #5 ) ;
#13 = CC_DESIGN_DATE_AND_TIME_ASSIGNMENT ( #173, #64, ( #150 ) ) ;
#14 = ADVANCED_FACE ( 'NONE', ( #89 ), #158, .T. ) ;
#15 = EDGE_CURVE ( 'NONE', #29, #143, #33, .T. ) ;
#16 = CARTESIAN_POINT ( 'NONE',  ( 2.129269888603113200, 6.426196124274393500, 0.03980873468578714100 ) ) ;
#17 = LINE ( 'NONE', #6, #74 ) ;
#18 = DIRECTION ( 'NONE',  ( 1.000000000000000000, 2.240877269159980100E-016, 1.936574019886349900E-016 ) ) ;
#19 = APPROVAL_PERSON_ORGANIZATION ( #121, #87, #120 ) ;
#20 =( NAMED_UNIT ( * ) PLANE_ANGLE_UNIT ( ) SI_UNIT ( $, .RADIAN. ) );
#21 = ORIENTED_EDGE ( 'NONE', *, *, #232, .T. ) ;
#22 = AXIS2_PLACEMENT_3D ( 'NONE', #42, #77, #178 ) ;
#23 = CARTESIAN_POINT ( 'NONE',  ( -4.258935215124286500, 2.142174978607988200, -0.0001570560977037717600 ) ) ;
#24 = CARTESIAN_POINT ( 'NONE',  ( 6.349999999999999600, 1.221245327087670000E-015, 0.03887026305894610000 ) ) ;
#25 = APPLICATION_PROTOCOL_DEFINITION ( 'international standard', 'config_control_design', 1994, #182 ) ;
#26 = APPROVAL_STATUS ( 'not_yet_approved' ) ;
#27 = CC_DESIGN_PERSON_AND_ORGANIZATION_ASSIGNMENT ( #164, #136, ( #154 ) ) ;
#28 = PERSON_AND_ORGANIZATION ( #85, #202 ) ;
#29 = VERTEX_POINT ( 'NONE', #148 ) ;
#30 = AXIS2_PLACEMENT_3D ( 'NONE', #179, #75, #225 ) ;
#31 = CIRCLE ( 'NONE', #132, 6.349999999999999600 ) ;
#32 = LOCAL_TIME ( 8, 28, 37.00000000000000000, #47 ) ;
#33 = CIRCLE ( 'NONE', #231, 518.7000000000000500 ) ;
#34 = CARTESIAN_POINT ( 'NONE',  ( 0.0000000000000000000, 13.15799999999999900, 2.100000000000000100 ) ) ;
#35 = CARTESIAN_POINT ( 'NONE',  ( 4.258499405977534700, -6.426196124274357000, 0.05292059393591373000 ) ) ;
#36 = DIRECTION ( 'NONE',  ( -0.0000000000000000000, -0.0000000000000000000, -1.000000000000000000 ) ) ;
#37 = PRODUCT_DEFINITION_SHAPE ( 'NONE', 'NONE',  #150 ) ;
#38 = AXIS2_PLACEMENT_3D ( 'NONE', #34, #220, #110 ) ;
#39 = ORIENTED_EDGE ( 'NONE', *, *, #118, .F. ) ;
#40 = DIRECTION ( 'NONE',  ( -0.0000000000000000000, -0.0000000000000000000, -1.000000000000000000 ) ) ;
#41 = CC_DESIGN_PERSON_AND_ORGANIZATION_ASSIGNMENT ( #115, #62, ( #55 ) ) ;
#42 = CARTESIAN_POINT ( 'NONE',  ( 2.498001805406600200E-016, 1.221245327087670000E-015, 0.03887026305894610000 ) ) ;
#43 = PERSON_AND_ORGANIZATION_ROLE ( 'creator' ) ;
#44 = APPROVAL_ROLE ( '' ) ;
#45 = ORIENTED_EDGE ( 'NONE', *, *, #217, .F. ) ;
#46 = AXIS2_PLACEMENT_3D ( 'NONE', #144, #171, #90 ) ;
#47 = COORDINATED_UNIVERSAL_TIME_OFFSET ( 2, 0, .AHEAD. ) ;
#48 = CLOSED_SHELL ( 'NONE', ( #14, #108, #167, #203, #88 ) ) ;
#49 = CARTESIAN_POINT ( 'NONE',  ( 1.018824168375743100E-013, -6.426196124274357000, 0.03980873468578671700 ) ) ;
#50 = DIRECTION ( 'NONE',  ( 0.0000000000000000000, 0.0000000000000000000, 1.000000000000000000 ) ) ;
#51 = DIRECTION ( 'NONE',  ( 1.000000000000000000, -8.881784197001252300E-016, 0.0000000000000000000 ) ) ;
#52 = CARTESIAN_POINT ( 'NONE',  ( 6.387607811197050000, -6.426196124274355300, 0.07914381523116420500 ) ) ;
#53 = CARTESIAN_POINT ( 'NONE',  ( 2.498001805406600200E-016, 1.221245327087670000E-015, 2.100000000000000100 ) ) ;
#54 = APPROVAL_PERSON_ORGANIZATION ( #101, #113, #138 ) ;
#55 = SECURITY_CLASSIFICATION ( '', '', #59 ) ;
#56 = ORIENTED_EDGE ( 'NONE', *, *, #104, .T. ) ;
#57 = APPLICATION_CONTEXT ( 'configuration controlled 3d designs of mechanical parts and assemblies' ) ;
#58 = DIRECTION ( 'NONE',  ( 1.000000000000000000, 0.0000000000000000000, 0.0000000000000000000 ) ) ;
#59 = SECURITY_CLASSIFICATION_LEVEL ( 'unclassified' ) ;
#60 = APPROVAL_STATUS ( 'not_yet_approved' ) ;
#61 = AXIS2_PLACEMENT_3D ( 'NONE', #53, #156, #4 ) ;
#62 = PERSON_AND_ORGANIZATION_ROLE ( 'classification_officer' ) ;
#63 = LOCAL_TIME ( 8, 28, 37.00000000000000000, #211 ) ;
#64 = DATE_TIME_ROLE ( 'creation_date' ) ;
#65 = CC_DESIGN_SECURITY_CLASSIFICATION ( #55, ( #154 ) ) ;
#66 = EDGE_CURVE ( 'NONE', #141, #143, #31, .T. ) ;
#67 = LOCAL_TIME ( 8, 28, 37.00000000000000000, #119 ) ;
#68 = PRODUCT ( '110-0135E BK7 pl-cx 12.7 F1000', '110-0135E BK7 pl-cx 12.7 F1000', '', ( #157 ) ) ;
#69 = APPROVAL_DATE_TIME ( #152, #187 ) ;
#70 = ORIENTED_EDGE ( 'NONE', *, *, #66, .T. ) ;
#71 = CARTESIAN_POINT ( 'NONE',  ( 9.900235347316423000E-014, 6.426196124274391700, 0.03980873468578671700 ) ) ;
#72 = ORIENTED_EDGE ( 'NONE', *, *, #199, .T. ) ;
#73 = CARTESIAN_POINT ( 'NONE',  ( 2.498001805406600200E-016, 1.221245327087670000E-015, 0.03887026305894610000 ) ) ;
#74 = VECTOR ( 'NONE', #114, 1000.000000000000000 ) ;
#75 = DIRECTION ( 'NONE',  ( 0.0000000000000000000, 0.0000000000000000000, 1.000000000000000000 ) ) ;
#76 =( NAMED_UNIT ( * ) SI_UNIT ( $, .STERADIAN. ) SOLID_ANGLE_UNIT ( ) );
#77 = DIRECTION ( 'NONE',  ( -0.0000000000000000000, -0.0000000000000000000, -1.000000000000000000 ) ) ;
#78 = CARTESIAN_POINT ( 'NONE',  ( -6.388261510456991300, 2.142174978607988200, 0.02606884884702299200 ) ) ;
#79 = EDGE_CURVE ( 'NONE', #143, #205, #226, .T. ) ;
#80 = EDGE_LOOP ( 'NONE', ( #215, #56, #70 ) ) ;
#81 = APPLICATION_PROTOCOL_DEFINITION ( 'international standard', 'config_control_design', 1994, #57 ) ;
#82 = CYLINDRICAL_SURFACE ( 'NONE', #192, 6.349999999999999600 ) ;
#83 = CC_DESIGN_APPROVAL ( #87, ( #154 ) ) ;
#84 = EDGE_LOOP ( 'NONE', ( #109, #21, #122, #180, #139 ) ) ;
#85 = PERSON ( 'UNSPECIFIED', 'UNSPECIFIED', 'UNSPECIFIED', ('UNSPECIFIED'), ('UNSPECIFIED'), ('UNSPECIFIED') ) ;
#86 = FACE_OUTER_BOUND ( 'NONE', #184, .T. ) ;
#87 = APPROVAL ( #228, 'UNSPECIFIED' ) ;
#88 = ADVANCED_FACE ( 'NONE', ( #201 ), #235, .T. ) ;
#89 = FACE_OUTER_BOUND ( 'NONE', #234, .T. ) ;
#90 = DIRECTION ( 'NONE',  ( 1.000000000000000000, 1.776356839400250500E-015, 0.0000000000000000000 ) ) ;
#91 = CARTESIAN_POINT ( 'NONE',  ( 4.258499405977532100, 6.426196124274393500, 0.05292059393591372300 ) ) ;
#92 = CARTESIAN_POINT ( 'NONE',  ( 2.129487795242257500, -2.142174978607954500, -0.01327025719795319800 ) ) ;
#93 = VERTEX_POINT ( 'NONE', #1 ) ;
#94 = DIRECTION ( 'NONE',  ( 1.000000000000000000, 0.0000000000000000000, 0.0000000000000000000 ) ) ;
#95 = CARTESIAN_POINT ( 'NONE',  ( -2.129487795242222000, -2.142174978607955800, -0.01327025719805555700 ) ) ;
#96 = CARTESIAN_POINT ( 'NONE',  ( -6.349999999999999600, 1.998896044546239400E-015, 0.03887026305894610000 ) ) ;
#97 = APPROVAL_PERSON_ORGANIZATION ( #28, #187, #44 ) ;
#98 = DIRECTION ( 'NONE',  ( 0.0000000000000000000, 0.0000000000000000000, 1.000000000000000000 ) ) ;
#99 = CARTESIAN_POINT ( 'NONE',  ( -2.688821387764051000E-014, 6.426196124274391700, 0.03980873468568466000 ) ) ;
#100 = CARTESIAN_POINT ( 'NONE',  ( -6.387607811197093500, -6.426196124274358800, 0.07914381523110858300 ) ) ;
#101 = PERSON_AND_ORGANIZATION ( #85, #202 ) ;
#102 = CC_DESIGN_DATE_AND_TIME_ASSIGNMENT ( #233, #8, ( #55 ) ) ;
#103 = DATE_AND_TIME ( #10, #67 ) ;
#104 = EDGE_CURVE ( 'NONE', #29, #141, #190, .T. ) ;
#105 = VECTOR ( 'NONE', #223, 1000.000000000000000 ) ;
#106 = MANIFOLD_SOLID_BREP ( 'Imported1', #48 ) ;
#107 = PERSON_AND_ORGANIZATION ( #85, #202 ) ;
#108 = ADVANCED_FACE ( 'NONE', ( #134 ), #82, .T. ) ;
#109 = ORIENTED_EDGE ( 'NONE', *, *, #66, .F. ) ;
#110 = DIRECTION ( 'NONE',  ( 1.000000000000000000, 0.0000000000000000000, -0.0000000000000000000 ) ) ;
#111 = APPROVAL_DATE_TIME ( #103, #113 ) ;
#112 = CARTESIAN_POINT ( 'NONE',  ( 6.388261510456944200, -2.142174978607954000, 0.02606884884707889500 ) ) ;
#113 = APPROVAL ( #60, 'UNSPECIFIED' ) ;
#114 = DIRECTION ( 'NONE',  ( 0.0000000000000000000, 0.0000000000000000000, 1.000000000000000000 ) ) ;
#115 = PERSON_AND_ORGANIZATION ( #85, #202 ) ;
#116 = EDGE_LOOP ( 'NONE', ( #45, #197 ) ) ;
#117 = CARTESIAN_POINT ( 'NONE',  ( -2.129269888603078500, -6.426196124274357900, 0.03980873468568479900 ) ) ;
#118 = EDGE_CURVE ( 'NONE', #205, #29, #230, .T. ) ;
#119 = COORDINATED_UNIVERSAL_TIME_OFFSET ( 2, 0, .AHEAD. ) ;
#120 = APPROVAL_ROLE ( '' ) ;
#121 = PERSON_AND_ORGANIZATION ( #85, #202 ) ;
#122 = ORIENTED_EDGE ( 'NONE', *, *, #128, .T. ) ;
#123 = PERSON_AND_ORGANIZATION_ROLE ( 'creator' ) ;
#124 = VERTEX_POINT ( 'NONE', #145 ) ;
#125 = APPROVAL_DATE_TIME ( #183, #87 ) ;
#126 = ORIENTED_EDGE ( 'NONE', *, *, #104, .F. ) ;
#127 = CARTESIAN_POINT ( 'NONE',  ( 9.997262917342506400E-014, 2.142174978607990000, -0.01327025719795389500 ) ) ;
#128 = EDGE_CURVE ( 'NONE', #124, #93, #185, .T. ) ;
#129 = ORIENTED_EDGE ( 'NONE', *, *, #232, .F. ) ;
#130 = CALENDAR_DATE ( 2018, 21, 12 ) ;
#131 = CARTESIAN_POINT ( 'NONE',  ( -2.341876692568689600E-014, -6.426196124274357000, 0.03980873468568468800 ) ) ;
#132 = AXIS2_PLACEMENT_3D ( 'NONE', #146, #36, #51 ) ;
#133 = CARTESIAN_POINT ( 'NONE',  ( 6.349999999999999600, 1.221245327087670000E-015, 0.03887026305894610000 ) ) ;
#134 = FACE_OUTER_BOUND ( 'NONE', #84, .T. ) ;
#135 = CARTESIAN_POINT ( 'NONE',  ( -4.258935215124284700, -2.142174978607956200, -0.0001570560977034871600 ) ) ;
#136 = PERSON_AND_ORGANIZATION_ROLE ( 'design_supplier' ) ;
#137 = FACE_OUTER_BOUND ( 'NONE', #80, .T. ) ;
#138 = APPROVAL_ROLE ( '' ) ;
#139 = ORIENTED_EDGE ( 'NONE', *, *, #79, .F. ) ;
#140 = DESIGN_CONTEXT ( 'detailed design', #182, 'design' ) ;
#141 = VERTEX_POINT ( 'NONE', #96 ) ;
#142 =( BOUNDED_SURFACE ( )  B_SPLINE_SURFACE ( 3, 3, ( 
 ( #100, #224, #117, #131 ),
 ( #7, #135, #95, #198 ),
 ( #78, #23, #151, #213 ),
 ( #191, #193, #153, #99 ) ),
 .UNSPECIFIED., .F., .F., .F. ) 
 B_SPLINE_SURFACE_WITH_KNOTS ( ( 4, 4 ),
 ( 4, 4 ),
 ( 0.0000000000000000000, 1.000000000000000000 ),
 ( 0.0000000000000000000, 1.000000000000000000 ),
 .UNSPECIFIED. ) 
 GEOMETRIC_REPRESENTATION_ITEM ( )  RATIONAL_B_SPLINE_SURFACE ( (
 ( 1.000000000000000000, 0.9999873599149916600, 0.9999873599149916600, 1.000000000000000000),
 ( 0.9999488352487812000, 0.9999361958104996400, 0.9999361958104996400, 0.9999488352487812000),
 ( 0.9999488352487812000, 0.9999361958104996400, 0.9999361958104996400, 0.9999488352487812000),
 ( 1.000000000000000000, 0.9999873599149916600, 0.9999873599149916600, 1.000000000000000000) ) ) 
 REPRESENTATION_ITEM ( '' )  SURFACE ( )  );
#143 = VERTEX_POINT ( 'NONE', #227 ) ;
#144 = CARTESIAN_POINT ( 'NONE',  ( 2.498001805406600200E-016, 1.221245327087670000E-015, 0.03887026305894610000 ) ) ;
#145 = CARTESIAN_POINT ( 'NONE',  ( -6.349999999999999600, 1.998896044546239400E-015, 2.100000000000000100 ) ) ;
#146 = CARTESIAN_POINT ( 'NONE',  ( 2.498001805406600200E-016, 1.221245327087670000E-015, 0.03887026305894610000 ) ) ;
#147 = ADVANCED_BREP_SHAPE_REPRESENTATION ( '110-0135E BK7 pl-cx 12.7 F1000', ( #106, #216 ), #172 ) ;
#148 = CARTESIAN_POINT ( 'NONE',  ( 1.018655239632631600E-013, -6.350000000000902000, 0.03887026305893912700 ) ) ;
#149 = CARTESIAN_POINT ( 'NONE',  ( 0.0000000000000000000, 0.0000000000000000000, 518.7000000000000500 ) ) ;
#150 = PRODUCT_DEFINITION ( 'UNKNOWN', '', #154, #140 ) ;
#151 = CARTESIAN_POINT ( 'NONE',  ( -2.129487795242223800, 2.142174978607988700, -0.01327025719805585200 ) ) ;
#152 = DATE_AND_TIME ( #186, #229 ) ;
#153 = CARTESIAN_POINT ( 'NONE',  ( -2.129269888603082100, 6.426196124274391700, 0.03980873468568477100 ) ) ;
#154 = PRODUCT_DEFINITION_FORMATION_WITH_SPECIFIED_SOURCE ( 'ANY', '', #68, .NOT_KNOWN. ) ;
#155 = DIRECTION ( 'NONE',  ( 1.000000000000000000, 0.0000000000000000000, 0.0000000000000000000 ) ) ;
#156 = DIRECTION ( 'NONE',  ( -0.0000000000000000000, -0.0000000000000000000, -1.000000000000000000 ) ) ;
#157 = MECHANICAL_CONTEXT ( 'NONE', #57, 'mechanical' ) ;
#158 =( BOUNDED_SURFACE ( )  B_SPLINE_SURFACE ( 3, 3, ( 
 ( #49, #208, #35, #52 ),
 ( #169, #92, #209, #112 ),
 ( #127, #3, #189, #221 ),
 ( #71, #16, #91, #207 ) ),
 .UNSPECIFIED., .F., .F., .F. ) 
 B_SPLINE_SURFACE_WITH_KNOTS ( ( 4, 4 ),
 ( 4, 4 ),
 ( 0.0000000000000000000, 1.000000000000000000 ),
 ( 0.0000000000000000000, 1.000000000000000000 ),
 .UNSPECIFIED. ) 
 GEOMETRIC_REPRESENTATION_ITEM ( )  RATIONAL_B_SPLINE_SURFACE ( (
 ( 1.000000000000000000, 0.9999873599149916600, 0.9999873599149916600, 1.000000000000000000),
 ( 0.9999488352487812000, 0.9999361958104996400, 0.9999361958104996400, 0.9999488352487812000),
 ( 0.9999488352487812000, 0.9999361958104996400, 0.9999361958104996400, 0.9999488352487812000),
 ( 1.000000000000000000, 0.9999873599149916600, 0.9999873599149916600, 1.000000000000000000) ) ) 
 REPRESENTATION_ITEM ( '' )  SURFACE ( )  );
#159 = PERSON_AND_ORGANIZATION_ROLE ( 'design_owner' ) ;
#160 = CALENDAR_DATE ( 2018, 21, 12 ) ;
#161 = ORIENTED_EDGE ( 'NONE', *, *, #118, .T. ) ;
#162 = COORDINATED_UNIVERSAL_TIME_OFFSET ( 2, 0, .AHEAD. ) ;
#163 = CC_DESIGN_APPROVAL ( #113, ( #55 ) ) ;
#164 = PERSON_AND_ORGANIZATION ( #85, #202 ) ;
#165 = ORIENTED_EDGE ( 'NONE', *, *, #79, .T. ) ;
#166 = AXIS2_PLACEMENT_3D ( 'NONE', #181, #212, #58 ) ;
#167 = ADVANCED_FACE ( 'NONE', ( #137 ), #142, .T. ) ;
#168 = PERSON_AND_ORGANIZATION ( #85, #202 ) ;
#169 = CARTESIAN_POINT ( 'NONE',  ( 1.009326994166502600E-013, -2.142174978607955400, -0.01327025719795361100 ) ) ;
#170 = DIRECTION ( 'NONE',  ( 2.240877269159981100E-016, -1.000000000000000000, -4.280790532582056900E-016 ) ) ;
#171 = DIRECTION ( 'NONE',  ( -0.0000000000000000000, -0.0000000000000000000, -1.000000000000000000 ) ) ;
#172 =( GEOMETRIC_REPRESENTATION_CONTEXT ( 3 ) GLOBAL_UNCERTAINTY_ASSIGNED_CONTEXT ( ( #177 ) ) GLOBAL_UNIT_ASSIGNED_CONTEXT ( ( #210, #20, #76 ) ) REPRESENTATION_CONTEXT ( 'NONE', 'WORKASPACE' ) );
#173 = DATE_AND_TIME ( #130, #218 ) ;
#174 = ORIENTED_EDGE ( 'NONE', *, *, #217, .T. ) ;
#175 = CARTESIAN_POINT ( 'NONE',  ( 2.498001805406600200E-016, 1.221245327087670000E-015, 0.03887026305894610000 ) ) ;
#176 = CC_DESIGN_PERSON_AND_ORGANIZATION_ASSIGNMENT ( #214, #123, ( #150 ) ) ;
#177 = UNCERTAINTY_MEASURE_WITH_UNIT (LENGTH_MEASURE( 1.000000000000000100E-005 ), #210, 'distance_accuracy_value', 'NONE');
#178 = DIRECTION ( 'NONE',  ( 1.000000000000000000, 0.0000000000000000000, 0.0000000000000000000 ) ) ;
#179 = CARTESIAN_POINT ( 'NONE',  ( 2.498001805406600200E-016, 1.221245327087670000E-015, 0.03887026305894610000 ) ) ;
#180 = ORIENTED_EDGE ( 'NONE', *, *, #199, .F. ) ;
#181 = CARTESIAN_POINT ( 'NONE',  ( 2.498001805406600200E-016, 1.221245327087670000E-015, 2.100000000000000100 ) ) ;
#182 = APPLICATION_CONTEXT ( 'configuration controlled 3d designs of mechanical parts and assemblies' ) ;
#183 = DATE_AND_TIME ( #196, #32 ) ;
#184 = EDGE_LOOP ( 'NONE', ( #129, #126, #39, #72, #174 ) ) ;
#185 = CIRCLE ( 'NONE', #166, 6.349999999999999600 ) ;
#186 = CALENDAR_DATE ( 2018, 21, 12 ) ;
#187 = APPROVAL ( #26, 'UNSPECIFIED' ) ;
#188 = PRODUCT_RELATED_PRODUCT_CATEGORY ( 'detail', '', ( #68 ) ) ;
#189 = CARTESIAN_POINT ( 'NONE',  ( 4.258935215124278500, 2.142174978607990400, -0.0001570560976474677800 ) ) ;
#190 = CIRCLE ( 'NONE', #12, 6.349999999999999600 ) ;
#191 = CARTESIAN_POINT ( 'NONE',  ( -6.387607811197097100, 6.426196124274389900, 0.07914381523110858300 ) ) ;
#192 = AXIS2_PLACEMENT_3D ( 'NONE', #73, #50, #94 ) ;
#193 = CARTESIAN_POINT ( 'NONE',  ( -4.258499405977541800, 6.426196124274391700, 0.05292059393585740000 ) ) ;
#194 = CARTESIAN_POINT ( 'NONE',  ( 0.0000000000000000000, 0.0000000000000000000, 0.0000000000000000000 ) ) ;
#195 = CC_DESIGN_PERSON_AND_ORGANIZATION_ASSIGNMENT ( #168, #43, ( #154 ) ) ;
#196 = CALENDAR_DATE ( 2018, 21, 12 ) ;
#197 = ORIENTED_EDGE ( 'NONE', *, *, #128, .F. ) ;
#198 = CARTESIAN_POINT ( 'NONE',  ( -2.428612866367529900E-014, -2.142174978607955800, -0.01327025719805565800 ) ) ;
#199 = EDGE_CURVE ( 'NONE', #205, #93, #204, .T. ) ;
#200 = CIRCLE ( 'NONE', #61, 6.349999999999999600 ) ;
#201 = FACE_OUTER_BOUND ( 'NONE', #116, .T. ) ;
#202 = ORGANIZATION ( 'UNSPECIFIED', 'UNSPECIFIED', '' ) ;
#203 = ADVANCED_FACE ( 'NONE', ( #86 ), #222, .T. ) ;
#204 = LINE ( 'NONE', #133, #105 ) ;
#205 = VERTEX_POINT ( 'NONE', #24 ) ;
#206 = CC_DESIGN_PERSON_AND_ORGANIZATION_ASSIGNMENT ( #107, #159, ( #68 ) ) ;
#207 = CARTESIAN_POINT ( 'NONE',  ( 6.387607811197047300, 6.426196124274393500, 0.07914381523116420500 ) ) ;
#208 = CARTESIAN_POINT ( 'NONE',  ( 2.129269888603116300, -6.426196124274357000, 0.03980873468578714100 ) ) ;
#209 = CARTESIAN_POINT ( 'NONE',  ( 4.258935215124280300, -2.142174978607954000, -0.0001570560976471831800 ) ) ;
#210 =( LENGTH_UNIT ( ) NAMED_UNIT ( * ) SI_UNIT ( .MILLI., .METRE. ) );
#211 = COORDINATED_UNIVERSAL_TIME_OFFSET ( 2, 0, .AHEAD. ) ;
#212 = DIRECTION ( 'NONE',  ( -0.0000000000000000000, -0.0000000000000000000, -1.000000000000000000 ) ) ;
#213 = CARTESIAN_POINT ( 'NONE',  ( -2.602085213965210600E-014, 2.142174978607989600, -0.01327025719805595600 ) ) ;
#214 = PERSON_AND_ORGANIZATION ( #85, #202 ) ;
#215 = ORIENTED_EDGE ( 'NONE', *, *, #15, .F. ) ;
#216 = AXIS2_PLACEMENT_3D ( 'NONE', #194, #98, #155 ) ;
#217 = EDGE_CURVE ( 'NONE', #93, #124, #200, .T. ) ;
#218 = LOCAL_TIME ( 8, 28, 37.00000000000000000, #162 ) ;
#219 = ORIENTED_EDGE ( 'NONE', *, *, #15, .T. ) ;
#220 = DIRECTION ( 'NONE',  ( 0.0000000000000000000, 0.0000000000000000000, 1.000000000000000000 ) ) ;
#221 = CARTESIAN_POINT ( 'NONE',  ( 6.388261510456942500, 2.142174978607991300, 0.02606884884707861100 ) ) ;
#222 = CYLINDRICAL_SURFACE ( 'NONE', #30, 6.349999999999999600 ) ;
#223 = DIRECTION ( 'NONE',  ( 0.0000000000000000000, 0.0000000000000000000, 1.000000000000000000 ) ) ;
#224 = CARTESIAN_POINT ( 'NONE',  ( -4.258499405977538300, -6.426196124274357900, 0.05292059393585740000 ) ) ;
#225 = DIRECTION ( 'NONE',  ( 1.000000000000000000, 0.0000000000000000000, 0.0000000000000000000 ) ) ;
#226 = CIRCLE ( 'NONE', #46, 6.349999999999999600 ) ;
#227 = CARTESIAN_POINT ( 'NONE',  ( 9.901960983142957400E-014, 6.350000000000902000, 0.03887026305893912700 ) ) ;
#228 = APPROVAL_STATUS ( 'not_yet_approved' ) ;
#229 = LOCAL_TIME ( 8, 28, 37.00000000000000000, #9 ) ;
#230 = CIRCLE ( 'NONE', #22, 6.349999999999999600 ) ;
#231 = AXIS2_PLACEMENT_3D ( 'NONE', #149, #18, #170 ) ;
#232 = EDGE_CURVE ( 'NONE', #141, #124, #17, .T. ) ;
#233 = DATE_AND_TIME ( #160, #63 ) ;
#234 = EDGE_LOOP ( 'NONE', ( #161, #219, #165 ) ) ;
#235 = PLANE ( 'NONE',  #38 ) ;
ENDSEC;
END-ISO-10303-21;
