ISO-10303-21;
HEADER;
FILE_DESCRIPTION (( 'STEP AP203' ),
    '1' );
FILE_NAME ('110-0129E BK7 pl-cx 12.7 F500.STEP',
    '2018-12-21T06:28:53',
    ( '' ),
    ( '' ),
    'SwSTEP 2.0',
    'SolidWorks 2017',
    '' );
FILE_SCHEMA (( 'CONFIG_CONTROL_DESIGN' ));
ENDSEC;

DATA;
#1 =( NAMED_UNIT ( * ) PLANE_ANGLE_UNIT ( ) SI_UNIT ( $, .RADIAN. ) );
#2 = DIRECTION ( 'NONE',  ( 0.0000000000000000000, 0.0000000000000000000, 1.000000000000000000 ) ) ;
#3 = PERSON_AND_ORGANIZATION ( #202, #205 ) ;
#4 = ORIENTED_EDGE ( 'NONE', *, *, #102, .T. ) ;
#5 =( BOUNDED_SURFACE ( )  B_SPLINE_SURFACE ( 3, 3, ( 
 ( #231, #126, #86, #119 ),
 ( #12, #104, #13, #199 ),
 ( #159, #120, #16, #52 ),
 ( #162, #54, #144, #37 ) ),
 .UNSPECIFIED., .F., .F., .F. ) 
 B_SPLINE_SURFACE_WITH_KNOTS ( ( 4, 4 ),
 ( 4, 4 ),
 ( 0.0000000000000000000, 1.000000000000000000 ),
 ( 0.0000000000000000000, 1.000000000000000000 ),
 .UNSPECIFIED. ) 
 GEOMETRIC_REPRESENTATION_ITEM ( )  RATIONAL_B_SPLINE_SURFACE ( (
 ( 1.000000000000000000, 0.9999494520550884500, 0.9999494520550884500, 1.000000000000000000),
 ( 0.9997953970783722800, 0.9997448594757179000, 0.9997448594757179000, 0.9997953970783722800),
 ( 0.9997953970783722800, 0.9997448594757179000, 0.9997448594757179000, 0.9997953970783722800),
 ( 1.000000000000000000, 0.9999494520550884500, 0.9999494520550884500, 1.000000000000000000) ) ) 
 REPRESENTATION_ITEM ( '' )  SURFACE ( )  );
#6 = CC_DESIGN_PERSON_AND_ORGANIZATION_ASSIGNMENT ( #82, #89, ( #223 ) ) ;
#7 = CYLINDRICAL_SURFACE ( 'NONE', #182, 6.349999999999999600 ) ;
#8 = EDGE_CURVE ( 'NONE', #123, #173, #111, .T. ) ;
#9 = APPROVAL_PERSON_ORGANIZATION ( #35, #155, #130 ) ;
#10 = FACE_OUTER_BOUND ( 'NONE', #133, .T. ) ;
#11 = AXIS2_PLACEMENT_3D ( 'NONE', #175, #67, #101 ) ;
#12 = CARTESIAN_POINT ( 'NONE',  ( -6.388745963978532700, -2.142499861828305500, 0.05213545899102032400 ) ) ;
#13 = CARTESIAN_POINT ( 'NONE',  ( -2.129851128823811100, -2.142499861828305500, -0.02654242959372318100 ) ) ;
#14 = DIRECTION ( 'NONE',  ( -0.0000000000000000000, -0.0000000000000000000, -1.000000000000000000 ) ) ;
#15 = DIRECTION ( 'NONE',  ( -0.0000000000000000000, -0.0000000000000000000, -1.000000000000000000 ) ) ;
#16 = CARTESIAN_POINT ( 'NONE',  ( -2.129851128823811100, 2.142499861828265600, -0.02654242959372346600 ) ) ;
#17 = CIRCLE ( 'NONE', #204, 6.349999999999999600 ) ;
#18 = EDGE_CURVE ( 'NONE', #123, #28, #53, .T. ) ;
#19 = CARTESIAN_POINT ( 'NONE',  ( 2.498001805406600200E-016, 1.221245327087670000E-015, 2.100000000000000100 ) ) ;
#20 = CARTESIAN_POINT ( 'NONE',  ( -6.349999999999999600, 1.998896044546239400E-015, 0.07773427644127610400 ) ) ;
#21 = DIRECTION ( 'NONE',  ( 0.0000000000000000000, 0.0000000000000000000, 1.000000000000000000 ) ) ;
#22 = PERSON_AND_ORGANIZATION_ROLE ( 'creator' ) ;
#23 = LOCAL_TIME ( 8, 28, 53.00000000000000000, #74 ) ;
#24 =( NAMED_UNIT ( * ) SI_UNIT ( $, .STERADIAN. ) SOLID_ANGLE_UNIT ( ) );
#25 = ORIENTED_EDGE ( 'NONE', *, *, #137, .F. ) ;
#26 = CALENDAR_DATE ( 2018, 21, 12 ) ;
#27 = COORDINATED_UNIVERSAL_TIME_OFFSET ( 2, 0, .AHEAD. ) ;
#28 = VERTEX_POINT ( 'NONE', #20 ) ;
#29 = CC_DESIGN_DATE_AND_TIME_ASSIGNMENT ( #228, #216, ( #223 ) ) ;
#30 = PERSON_AND_ORGANIZATION ( #202, #205 ) ;
#31 = CARTESIAN_POINT ( 'NONE',  ( 6.388745963978383500, -2.142499861828305500, 0.05213545899101265600 ) ) ;
#32 = AXIS2_PLACEMENT_3D ( 'NONE', #183, #233, #129 ) ;
#33 = PRODUCT ( '110-0129E BK7 pl-cx 12.7 F500', '110-0129E BK7 pl-cx 12.7 F500', '', ( #40 ) ) ;
#34 = CARTESIAN_POINT ( 'NONE',  ( 2.129851128823603700, 2.142499861828265600, -0.02654242959373453300 ) ) ;
#35 = PERSON_AND_ORGANIZATION ( #202, #205 ) ;
#36 = ORIENTED_EDGE ( 'NONE', *, *, #18, .F. ) ;
#37 = CARTESIAN_POINT ( 'NONE',  ( -1.509209424099822200E-013, 6.426184500290887100, 0.07961099680532225700 ) ) ;
#38 = DIRECTION ( 'NONE',  ( 0.0000000000000000000, -1.000000000000000000, -4.279965399480172100E-016 ) ) ;
#39 = PERSON_AND_ORGANIZATION_ROLE ( 'design_supplier' ) ;
#40 = MECHANICAL_CONTEXT ( 'NONE', #203, 'mechanical' ) ;
#41 = APPROVAL ( #106, 'UNSPECIFIED' ) ;
#42 = DESIGN_CONTEXT ( 'detailed design', #218, 'design' ) ;
#43 = DIRECTION ( 'NONE',  ( -0.0000000000000000000, -0.0000000000000000000, -1.000000000000000000 ) ) ;
#44 = DIRECTION ( 'NONE',  ( 1.000000000000000000, 0.0000000000000000000, 0.0000000000000000000 ) ) ;
#45 = PERSON_AND_ORGANIZATION ( #202, #205 ) ;
#46 = ORIENTED_EDGE ( 'NONE', *, *, #157, .F. ) ;
#47 = PRODUCT_DEFINITION_FORMATION_WITH_SPECIFIED_SOURCE ( 'ANY', '', #33, .NOT_KNOWN. ) ;
#48 = PRODUCT_DEFINITION_SHAPE ( 'NONE', 'NONE',  #223 ) ;
#49 = ORIENTED_EDGE ( 'NONE', *, *, #154, .F. ) ;
#50 = VECTOR ( 'NONE', #131, 1000.000000000000000 ) ;
#51 = CC_DESIGN_APPROVAL ( #128, ( #61 ) ) ;
#52 = CARTESIAN_POINT ( 'NONE',  ( -1.509209424099822200E-013, 2.142499861828265600, -0.02654242959372447200 ) ) ;
#53 = CIRCLE ( 'NONE', #32, 6.349999999999999600 ) ;
#54 = CARTESIAN_POINT ( 'NONE',  ( -4.257797828445554000, 6.426184500290886200, 0.1058275535917193600 ) ) ;
#55 = APPROVAL_STATUS ( 'not_yet_approved' ) ;
#56 = CC_DESIGN_APPROVAL ( #41, ( #47 ) ) ;
#57 = CIRCLE ( 'NONE', #171, 6.349999999999999600 ) ;
#58 = PERSON_AND_ORGANIZATION_ROLE ( 'classification_officer' ) ;
#59 = PERSON_AND_ORGANIZATION_ROLE ( 'design_owner' ) ;
#60 = CIRCLE ( 'NONE', #132, 6.349999999999999600 ) ;
#61 = SECURITY_CLASSIFICATION ( '', '', #148 ) ;
#62 = DATE_AND_TIME ( #135, #23 ) ;
#63 = FACE_OUTER_BOUND ( 'NONE', #180, .T. ) ;
#64 = CC_DESIGN_PERSON_AND_ORGANIZATION_ASSIGNMENT ( #170, #22, ( #47 ) ) ;
#65 = CARTESIAN_POINT ( 'NONE',  ( 6.386131785536507600, 6.426184500290887100, 0.1582566915853046400 ) ) ;
#66 = ORIENTED_EDGE ( 'NONE', *, *, #8, .T. ) ;
#67 = DIRECTION ( 'NONE',  ( 0.0000000000000000000, 0.0000000000000000000, 1.000000000000000000 ) ) ;
#68 = CARTESIAN_POINT ( 'NONE',  ( -8.714089700877326100E-014, 6.426184500290887100, 0.07961099680531269500 ) ) ;
#69 = LOCAL_TIME ( 8, 28, 53.00000000000000000, #27 ) ;
#70 = CARTESIAN_POINT ( 'NONE',  ( 6.386131785536507600, -6.426184500290927000, 0.1582566915853046400 ) ) ;
#71 = VERTEX_POINT ( 'NONE', #121 ) ;
#72 = CARTESIAN_POINT ( 'NONE',  ( 2.498001805406600200E-016, 1.221245327087670000E-015, 0.07773427644127610400 ) ) ;
#73 = CARTESIAN_POINT ( 'NONE',  ( 0.0000000000000000000, 0.0000000000000000000, 0.0000000000000000000 ) ) ;
#74 = COORDINATED_UNIVERSAL_TIME_OFFSET ( 2, 0, .AHEAD. ) ;
#75 = DIRECTION ( 'NONE',  ( 0.0000000000000000000, 0.0000000000000000000, 1.000000000000000000 ) ) ;
#76 = DIRECTION ( 'NONE',  ( 1.000000000000000000, 0.0000000000000000000, 0.0000000000000000000 ) ) ;
#77 = LOCAL_TIME ( 8, 28, 53.00000000000000000, #84 ) ;
#78 = ORIENTED_EDGE ( 'NONE', *, *, #169, .T. ) ;
#79 = CC_DESIGN_PERSON_AND_ORGANIZATION_ASSIGNMENT ( #122, #58, ( #61 ) ) ;
#80 = DATE_AND_TIME ( #97, #77 ) ;
#81 = EDGE_CURVE ( 'NONE', #71, #93, #198, .T. ) ;
#82 = PERSON_AND_ORGANIZATION ( #202, #205 ) ;
#83 = ORIENTED_EDGE ( 'NONE', *, *, #18, .T. ) ;
#84 = COORDINATED_UNIVERSAL_TIME_OFFSET ( 2, 0, .AHEAD. ) ;
#85 = CARTESIAN_POINT ( 'NONE',  ( -8.714132196377010200E-014, -6.349999999999277600, 0.07773427644123767600 ) ) ;
#86 = CARTESIAN_POINT ( 'NONE',  ( -2.128979625881486800, -6.426184500290926100, 0.07961099680532325600 ) ) ;
#87 = CARTESIAN_POINT ( 'NONE',  ( 2.128979625881277600, 6.426184500290886200, 0.07961099680531219500 ) ) ;
#88 = CARTESIAN_POINT ( 'NONE',  ( -2.842170943040400100E-014, -2.842170943040400100E-014, 259.3999999999999800 ) ) ;
#89 = PERSON_AND_ORGANIZATION_ROLE ( 'creator' ) ;
#90 = CC_DESIGN_DATE_AND_TIME_ASSIGNMENT ( #108, #91, ( #61 ) ) ;
#91 = DATE_TIME_ROLE ( 'classification_date' ) ;
#92 = DIRECTION ( 'NONE',  ( 1.000000000000000000, 0.0000000000000000000, 0.0000000000000000000 ) ) ;
#93 = VERTEX_POINT ( 'NONE', #201 ) ;
#94 = APPROVAL_STATUS ( 'not_yet_approved' ) ;
#95 = ORIENTED_EDGE ( 'NONE', *, *, #8, .F. ) ;
#96 =( BOUNDED_SURFACE ( )  B_SPLINE_SURFACE ( 3, 3, ( 
 ( #124, #160, #174, #70 ),
 ( #179, #196, #230, #31 ),
 ( #140, #34, #142, #200 ),
 ( #68, #87, #215, #65 ) ),
 .UNSPECIFIED., .F., .F., .F. ) 
 B_SPLINE_SURFACE_WITH_KNOTS ( ( 4, 4 ),
 ( 4, 4 ),
 ( 0.0000000000000000000, 1.000000000000000000 ),
 ( 0.0000000000000000000, 1.000000000000000000 ),
 .UNSPECIFIED. ) 
 GEOMETRIC_REPRESENTATION_ITEM ( )  RATIONAL_B_SPLINE_SURFACE ( (
 ( 1.000000000000000000, 0.9999494520550884500, 0.9999494520550884500, 1.000000000000000000),
 ( 0.9997953970783722800, 0.9997448594757179000, 0.9997448594757179000, 0.9997953970783722800),
 ( 0.9997953970783722800, 0.9997448594757179000, 0.9997448594757179000, 0.9997953970783722800),
 ( 1.000000000000000000, 0.9999494520550884500, 0.9999494520550884500, 1.000000000000000000) ) ) 
 REPRESENTATION_ITEM ( '' )  SURFACE ( )  );
#97 = CALENDAR_DATE ( 2018, 21, 12 ) ;
#98 = ORIENTED_EDGE ( 'NONE', *, *, #81, .F. ) ;
#99 = ADVANCED_FACE ( 'NONE', ( #100 ), #96, .T. ) ;
#100 = FACE_OUTER_BOUND ( 'NONE', #141, .T. ) ;
#101 = DIRECTION ( 'NONE',  ( 1.000000000000000000, 0.0000000000000000000, -0.0000000000000000000 ) ) ;
#102 = EDGE_CURVE ( 'NONE', #173, #206, #17, .T. ) ;
#103 = DIRECTION ( 'NONE',  ( 1.000000000000000000, 0.0000000000000000000, 0.0000000000000000000 ) ) ;
#104 = CARTESIAN_POINT ( 'NONE',  ( -4.259540768251177700, -2.142499861828305500, -0.0003151409966046026000 ) ) ;
#105 = CIRCLE ( 'NONE', #177, 6.349999999999999600 ) ;
#106 = APPROVAL_STATUS ( 'not_yet_approved' ) ;
#107 = DIRECTION ( 'NONE',  ( 1.000000000000000000, 8.881784197001252300E-016, 0.0000000000000000000 ) ) ;
#108 = DATE_AND_TIME ( #213, #69 ) ;
#109 = LINE ( 'NONE', #149, #158 ) ;
#110 = CARTESIAN_POINT ( 'NONE',  ( 6.349999999999999600, 1.221245327087670000E-015, 0.07773427644127610400 ) ) ;
#111 = CIRCLE ( 'NONE', #134, 259.3999999999999800 ) ;
#112 = CC_DESIGN_APPROVAL ( #155, ( #223 ) ) ;
#113 = ADVANCED_BREP_SHAPE_REPRESENTATION ( '110-0129E BK7 pl-cx 12.7 F500', ( #187, #143 ), #195 ) ;
#114 = APPROVAL_DATE_TIME ( #62, #128 ) ;
#115 = EDGE_LOOP ( 'NONE', ( #46, #78, #229, #214, #166 ) ) ;
#116 = ADVANCED_FACE ( 'NONE', ( #161 ), #5, .T. ) ;
#117 = APPROVAL_DATE_TIME ( #172, #41 ) ;
#118 = ADVANCED_FACE ( 'NONE', ( #63 ), #208, .T. ) ;
#119 = CARTESIAN_POINT ( 'NONE',  ( -1.509209424099822200E-013, -6.426184500290927000, 0.07961099680532225700 ) ) ;
#120 = CARTESIAN_POINT ( 'NONE',  ( -4.259540768251177700, 2.142499861828265600, -0.0003151409966048871500 ) ) ;
#121 = CARTESIAN_POINT ( 'NONE',  ( 6.349999999999999600, 1.221245327087670000E-015, 2.100000000000000100 ) ) ;
#122 = PERSON_AND_ORGANIZATION ( #202, #205 ) ;
#123 = VERTEX_POINT ( 'NONE', #85 ) ;
#124 = CARTESIAN_POINT ( 'NONE',  ( -8.714089700877326100E-014, -6.426184500290927000, 0.07961099680531269500 ) ) ;
#125 = CC_DESIGN_SECURITY_CLASSIFICATION ( #61, ( #47 ) ) ;
#126 = CARTESIAN_POINT ( 'NONE',  ( -4.257797828445554000, -6.426184500290926100, 0.1058275535917193600 ) ) ;
#127 = APPROVAL_ROLE ( '' ) ;
#128 = APPROVAL ( #94, 'UNSPECIFIED' ) ;
#129 = DIRECTION ( 'NONE',  ( 1.000000000000000000, 0.0000000000000000000, 0.0000000000000000000 ) ) ;
#130 = APPROVAL_ROLE ( '' ) ;
#131 = DIRECTION ( 'NONE',  ( 0.0000000000000000000, 0.0000000000000000000, 1.000000000000000000 ) ) ;
#132 = AXIS2_PLACEMENT_3D ( 'NONE', #72, #43, #107 ) ;
#133 = EDGE_LOOP ( 'NONE', ( #222, #36, #25, #147, #186 ) ) ;
#134 = AXIS2_PLACEMENT_3D ( 'NONE', #88, #145, #38 ) ;
#135 = CALENDAR_DATE ( 2018, 21, 12 ) ;
#136 = ORIENTED_EDGE ( 'NONE', *, *, #157, .T. ) ;
#137 = EDGE_CURVE ( 'NONE', #206, #123, #105, .T. ) ;
#138 = ADVANCED_FACE ( 'NONE', ( #10 ), #7, .T. ) ;
#139 = DIRECTION ( 'NONE',  ( 1.000000000000000000, -1.776356839400250500E-015, 0.0000000000000000000 ) ) ;
#140 = CARTESIAN_POINT ( 'NONE',  ( -8.716493384976664000E-014, 2.142499861828265600, -0.02654242959373405800 ) ) ;
#141 = EDGE_LOOP ( 'NONE', ( #190, #66, #4 ) ) ;
#142 = CARTESIAN_POINT ( 'NONE',  ( 4.259540768250998300, 2.142499861828265600, -0.0003151409966125172200 ) ) ;
#143 = AXIS2_PLACEMENT_3D ( 'NONE', #73, #2, #44 ) ;
#144 = CARTESIAN_POINT ( 'NONE',  ( -2.128979625881486800, 6.426184500290886200, 0.07961099680532325600 ) ) ;
#145 = DIRECTION ( 'NONE',  ( 1.000000000000000000, 1.014630051716460000E-031, -2.264349047295540000E-016 ) ) ;
#146 = UNCERTAINTY_MEASURE_WITH_UNIT (LENGTH_MEASURE( 1.000000000000000100E-005 ), #235, 'distance_accuracy_value', 'NONE');
#147 = ORIENTED_EDGE ( 'NONE', *, *, #221, .T. ) ;
#148 = SECURITY_CLASSIFICATION_LEVEL ( 'unclassified' ) ;
#149 = CARTESIAN_POINT ( 'NONE',  ( 6.349999999999999600, 1.221245327087670000E-015, 0.07773427644127610400 ) ) ;
#150 = SHAPE_DEFINITION_REPRESENTATION ( #48, #113 ) ;
#151 = APPLICATION_PROTOCOL_DEFINITION ( 'international standard', 'config_control_design', 1994, #218 ) ;
#152 = EDGE_LOOP ( 'NONE', ( #95, #83, #136 ) ) ;
#153 = CC_DESIGN_PERSON_AND_ORGANIZATION_ASSIGNMENT ( #45, #39, ( #47 ) ) ;
#154 = EDGE_CURVE ( 'NONE', #93, #71, #57, .T. ) ;
#155 = APPROVAL ( #55, 'UNSPECIFIED' ) ;
#156 = FACE_OUTER_BOUND ( 'NONE', #115, .T. ) ;
#157 = EDGE_CURVE ( 'NONE', #28, #173, #60, .T. ) ;
#158 = VECTOR ( 'NONE', #21, 1000.000000000000000 ) ;
#159 = CARTESIAN_POINT ( 'NONE',  ( -6.388745963978532700, 2.142499861828265600, 0.05213545899102003900 ) ) ;
#160 = CARTESIAN_POINT ( 'NONE',  ( 2.128979625881277600, -6.426184500290926100, 0.07961099680531219500 ) ) ;
#161 = FACE_OUTER_BOUND ( 'NONE', #152, .T. ) ;
#162 = CARTESIAN_POINT ( 'NONE',  ( -6.386131785536659500, 6.426184500290887100, 0.1582566915853123000 ) ) ;
#163 = APPLICATION_PROTOCOL_DEFINITION ( 'international standard', 'config_control_design', 1994, #203 ) ;
#164 = CARTESIAN_POINT ( 'NONE',  ( -6.349999999999999600, 1.998896044546239400E-015, 0.07773427644127610400 ) ) ;
#165 = COORDINATED_UNIVERSAL_TIME_OFFSET ( 2, 0, .AHEAD. ) ;
#166 = ORIENTED_EDGE ( 'NONE', *, *, #102, .F. ) ;
#167 = APPROVAL_PERSON_ORGANIZATION ( #30, #128, #220 ) ;
#168 = CLOSED_SHELL ( 'NONE', ( #99, #193, #116, #138, #118 ) ) ;
#169 = EDGE_CURVE ( 'NONE', #28, #93, #192, .T. ) ;
#170 = PERSON_AND_ORGANIZATION ( #202, #205 ) ;
#171 = AXIS2_PLACEMENT_3D ( 'NONE', #232, #184, #76 ) ;
#172 = DATE_AND_TIME ( #178, #188 ) ;
#173 = VERTEX_POINT ( 'NONE', #225 ) ;
#174 = CARTESIAN_POINT ( 'NONE',  ( 4.257797828445373700, -6.426184500290926100, 0.1058275535917117400 ) ) ;
#175 = CARTESIAN_POINT ( 'NONE',  ( 0.0000000000000000000, 13.15799999999999900, 2.100000000000000100 ) ) ;
#176 = DIRECTION ( 'NONE',  ( 0.0000000000000000000, 0.0000000000000000000, 1.000000000000000000 ) ) ;
#177 = AXIS2_PLACEMENT_3D ( 'NONE', #210, #15, #103 ) ;
#178 = CALENDAR_DATE ( 2018, 21, 12 ) ;
#179 = CARTESIAN_POINT ( 'NONE',  ( -8.716493384976664000E-014, -2.142499861828305500, -0.02654242959373377300 ) ) ;
#180 = EDGE_LOOP ( 'NONE', ( #98, #49 ) ) ;
#181 = DIRECTION ( 'NONE',  ( 1.000000000000000000, 0.0000000000000000000, 0.0000000000000000000 ) ) ;
#182 = AXIS2_PLACEMENT_3D ( 'NONE', #209, #176, #212 ) ;
#183 = CARTESIAN_POINT ( 'NONE',  ( 2.498001805406600200E-016, 1.221245327087670000E-015, 0.07773427644127610400 ) ) ;
#184 = DIRECTION ( 'NONE',  ( -0.0000000000000000000, -0.0000000000000000000, -1.000000000000000000 ) ) ;
#185 = APPROVAL_PERSON_ORGANIZATION ( #3, #41, #127 ) ;
#186 = ORIENTED_EDGE ( 'NONE', *, *, #81, .T. ) ;
#187 = MANIFOLD_SOLID_BREP ( 'Imported1', #168 ) ;
#188 = LOCAL_TIME ( 8, 28, 53.00000000000000000, #165 ) ;
#189 = AXIS2_PLACEMENT_3D ( 'NONE', #19, #227, #181 ) ;
#190 = ORIENTED_EDGE ( 'NONE', *, *, #137, .T. ) ;
#191 = AXIS2_PLACEMENT_3D ( 'NONE', #217, #75, #92 ) ;
#192 = LINE ( 'NONE', #164, #50 ) ;
#193 = ADVANCED_FACE ( 'NONE', ( #156 ), #234, .T. ) ;
#194 = CARTESIAN_POINT ( 'NONE',  ( 2.498001805406600200E-016, 1.221245327087670000E-015, 0.07773427644127610400 ) ) ;
#195 =( GEOMETRIC_REPRESENTATION_CONTEXT ( 3 ) GLOBAL_UNCERTAINTY_ASSIGNED_CONTEXT ( ( #146 ) ) GLOBAL_UNIT_ASSIGNED_CONTEXT ( ( #235, #1, #24 ) ) REPRESENTATION_CONTEXT ( 'NONE', 'WORKASPACE' ) );
#196 = CARTESIAN_POINT ( 'NONE',  ( 2.129851128823603700, -2.142499861828305500, -0.02654242959373424900 ) ) ;
#197 = COORDINATED_UNIVERSAL_TIME_OFFSET ( 2, 0, .AHEAD. ) ;
#198 = CIRCLE ( 'NONE', #189, 6.349999999999999600 ) ;
#199 = CARTESIAN_POINT ( 'NONE',  ( -1.509209424099822200E-013, -2.142499861828305500, -0.02654242959372418700 ) ) ;
#200 = CARTESIAN_POINT ( 'NONE',  ( 6.388745963978383500, 2.142499861828265600, 0.05213545899101237900 ) ) ;
#201 = CARTESIAN_POINT ( 'NONE',  ( -6.349999999999999600, 1.998896044546239400E-015, 2.100000000000000100 ) ) ;
#202 = PERSON ( 'UNSPECIFIED', 'UNSPECIFIED', 'UNSPECIFIED', ('UNSPECIFIED'), ('UNSPECIFIED'), ('UNSPECIFIED') ) ;
#203 = APPLICATION_CONTEXT ( 'configuration controlled 3d designs of mechanical parts and assemblies' ) ;
#204 = AXIS2_PLACEMENT_3D ( 'NONE', #194, #14, #139 ) ;
#205 = ORGANIZATION ( 'UNSPECIFIED', 'UNSPECIFIED', '' ) ;
#206 = VERTEX_POINT ( 'NONE', #110 ) ;
#207 = PERSON_AND_ORGANIZATION ( #202, #205 ) ;
#208 = PLANE ( 'NONE',  #11 ) ;
#209 = CARTESIAN_POINT ( 'NONE',  ( 2.498001805406600200E-016, 1.221245327087670000E-015, 0.07773427644127610400 ) ) ;
#210 = CARTESIAN_POINT ( 'NONE',  ( 2.498001805406600200E-016, 1.221245327087670000E-015, 0.07773427644127610400 ) ) ;
#211 = PRODUCT_RELATED_PRODUCT_CATEGORY ( 'detail', '', ( #33 ) ) ;
#212 = DIRECTION ( 'NONE',  ( 1.000000000000000000, 0.0000000000000000000, 0.0000000000000000000 ) ) ;
#213 = CALENDAR_DATE ( 2018, 21, 12 ) ;
#214 = ORIENTED_EDGE ( 'NONE', *, *, #221, .F. ) ;
#215 = CARTESIAN_POINT ( 'NONE',  ( 4.257797828445373700, 6.426184500290886200, 0.1058275535917117400 ) ) ;
#216 = DATE_TIME_ROLE ( 'creation_date' ) ;
#217 = CARTESIAN_POINT ( 'NONE',  ( 2.498001805406600200E-016, 1.221245327087670000E-015, 0.07773427644127610400 ) ) ;
#218 = APPLICATION_CONTEXT ( 'configuration controlled 3d designs of mechanical parts and assemblies' ) ;
#219 = LOCAL_TIME ( 8, 28, 53.00000000000000000, #197 ) ;
#220 = APPROVAL_ROLE ( '' ) ;
#221 = EDGE_CURVE ( 'NONE', #206, #71, #109, .T. ) ;
#222 = ORIENTED_EDGE ( 'NONE', *, *, #169, .F. ) ;
#223 = PRODUCT_DEFINITION ( 'UNKNOWN', '', #47, #42 ) ;
#224 = APPROVAL_DATE_TIME ( #80, #155 ) ;
#225 = CARTESIAN_POINT ( 'NONE',  ( -8.714132196377010200E-014, 6.349999999999248200, 0.07773427644123767600 ) ) ;
#226 = CC_DESIGN_PERSON_AND_ORGANIZATION_ASSIGNMENT ( #207, #59, ( #33 ) ) ;
#227 = DIRECTION ( 'NONE',  ( -0.0000000000000000000, -0.0000000000000000000, -1.000000000000000000 ) ) ;
#228 = DATE_AND_TIME ( #26, #219 ) ;
#229 = ORIENTED_EDGE ( 'NONE', *, *, #154, .T. ) ;
#230 = CARTESIAN_POINT ( 'NONE',  ( 4.259540768250998300, -2.142499861828305500, -0.0003151409966122394500 ) ) ;
#231 = CARTESIAN_POINT ( 'NONE',  ( -6.386131785536659500, -6.426184500290927000, 0.1582566915853123000 ) ) ;
#232 = CARTESIAN_POINT ( 'NONE',  ( 2.498001805406600200E-016, 1.221245327087670000E-015, 2.100000000000000100 ) ) ;
#233 = DIRECTION ( 'NONE',  ( -0.0000000000000000000, -0.0000000000000000000, -1.000000000000000000 ) ) ;
#234 = CYLINDRICAL_SURFACE ( 'NONE', #191, 6.349999999999999600 ) ;
#235 =( LENGTH_UNIT ( ) NAMED_UNIT ( * ) SI_UNIT ( .MILLI., .METRE. ) );
ENDSEC;
END-ISO-10303-21;
