ISO-10303-21;
HEADER;
FILE_DESCRIPTION (( 'STEP AP203' ),
    '1' );
FILE_NAME ('110-0127E BK7 pl-cx 12.7 F350.STEP',
    '2019-01-24T12:15:57',
    ( '' ),
    ( '' ),
    'SwSTEP 2.0',
    'SolidWorks 2017',
    '' );
FILE_SCHEMA (( 'CONFIG_CONTROL_DESIGN' ));
ENDSEC;

DATA;
#1 = EDGE_CURVE ( 'NONE', #4, #22, #189, .T. ) ;
#2 = PERSON_AND_ORGANIZATION ( #109, #47 ) ;
#3 = APPLICATION_CONTEXT ( 'configuration controlled 3d designs of mechanical parts and assemblies' ) ;
#4 = VERTEX_POINT ( 'NONE', #170 ) ;
#5 = DIRECTION ( 'NONE',  ( -2.217283669810570000E-032, -1.152901140418150100E-016, 1.000000000000000000 ) ) ;
#6 = CALENDAR_DATE ( 2019, 24, 1 ) ;
#7 = DIRECTION ( 'NONE',  ( 1.000000000000000000, 0.0000000000000000000, -0.0000000000000000000 ) ) ;
#8 = PERSON_AND_ORGANIZATION ( #109, #47 ) ;
#9 = EDGE_CURVE ( 'NONE', #22, #214, #11, .T. ) ;
#10 = CARTESIAN_POINT ( 'NONE',  ( 0.0000000000000000000, 0.0000000000000000000, 0.0000000000000000000 ) ) ;
#11 = LINE ( 'NONE', #86, #97 ) ;
#12 = CARTESIAN_POINT ( 'NONE',  ( 6.418476861114186200E-014, 2.142950867779435300, -0.03792752414112125800 ) ) ;
#13 = CC_DESIGN_SECURITY_CLASSIFICATION ( #192, ( #20 ) ) ;
#14 = FACE_OUTER_BOUND ( 'NONE', #161, .T. ) ;
#15 = EDGE_CURVE ( 'NONE', #214, #167, #93, .T. ) ;
#16 = PERSON_AND_ORGANIZATION ( #109, #47 ) ;
#17 = ADVANCED_FACE ( 'NONE', ( #70 ), #80, .T. ) ;
#18 = ADVANCED_BREP_SHAPE_REPRESENTATION ( '110-0127E BK7 pl-cx 12.7 F350', ( #120, #104 ), #114 ) ;
#19 = CYLINDRICAL_SURFACE ( 'NONE', #36, 6.349999999999999600 ) ;
#20 = PRODUCT_DEFINITION_FORMATION_WITH_SPECIFIED_SOURCE ( 'ANY', '', #146, .NOT_KNOWN. ) ;
#21 = DIRECTION ( 'NONE',  ( 0.0000000000000000000, 0.0000000000000000000, 1.000000000000000000 ) ) ;
#22 = VERTEX_POINT ( 'NONE', #38 ) ;
#23 = APPLICATION_PROTOCOL_DEFINITION ( 'international standard', 'config_control_design', 1994, #3 ) ;
#24 = APPLICATION_CONTEXT ( 'configuration controlled 3d designs of mechanical parts and assemblies' ) ;
#25 = APPROVAL_STATUS ( 'not_yet_approved' ) ;
#26 = ORIENTED_EDGE ( 'NONE', *, *, #199, .T. ) ;
#27 = CARTESIAN_POINT ( 'NONE',  ( 6.411377269876456200, 2.142950867779437100, 0.07526075829647757600 ) ) ;
#28 = CARTESIAN_POINT ( 'NONE',  ( 6.591949208711867000E-014, -6.426168367040162400, 0.1137350648307451600 ) ) ;
#29 = PERSON_AND_ORGANIZATION ( #109, #47 ) ;
#30 = CYLINDRICAL_SURFACE ( 'NONE', #147, 6.349999999999999600 ) ;
#31 = DIRECTION ( 'NONE',  ( 0.0000000000000000000, 0.0000000000000000000, 1.000000000000000000 ) ) ;
#32 = DIRECTION ( 'NONE',  ( 2.217283669810570000E-032, 1.152901140418150100E-016, -1.000000000000000000 ) ) ;
#33 = APPROVAL_DATE_TIME ( #131, #204 ) ;
#34 = CC_DESIGN_DATE_AND_TIME_ASSIGNMENT ( #202, #174, ( #192 ) ) ;
#35 = ORIENTED_EDGE ( 'NONE', *, *, #78, .F. ) ;
#36 = AXIS2_PLACEMENT_3D ( 'NONE', #101, #140, #207 ) ;
#37 = ADVANCED_FACE ( 'NONE', ( #113 ), #19, .T. ) ;
#38 = CARTESIAN_POINT ( 'NONE',  ( 1.027450897999229200E-015, 6.350000000000000500, 0.1110540556257457300 ) ) ;
#39 = ORIENTED_EDGE ( 'NONE', *, *, #9, .F. ) ;
#40 = APPROVAL_ROLE ( '' ) ;
#41 = PERSON_AND_ORGANIZATION_ROLE ( 'creator' ) ;
#42 = CARTESIAN_POINT ( 'NONE',  ( 6.406023949185792400, -6.426168367040160600, 0.2268288382184459300 ) ) ;
#43 = APPROVAL_PERSON_ORGANIZATION ( #166, #204, #206 ) ;
#44 = DIRECTION ( 'NONE',  ( 2.217283669810570000E-032, 1.152901140418150100E-016, -1.000000000000000000 ) ) ;
#45 = CARTESIAN_POINT ( 'NONE',  ( -4.271459035380162900, 6.426168367040136600, 0.1514369052697062700 ) ) ;
#46 = DIRECTION ( 'NONE',  ( -2.217283669810570000E-032, -1.152901140418150100E-016, 1.000000000000000000 ) ) ;
#47 = ORGANIZATION ( 'UNSPECIFIED', 'UNSPECIFIED', '' ) ;
#48 = CARTESIAN_POINT ( 'NONE',  ( -5.435472113732788400E-014, 6.426168367040139300, 0.1137350648307278200 ) ) ;
#49 = CC_DESIGN_PERSON_AND_ORGANIZATION_ASSIGNMENT ( #177, #191, ( #192 ) ) ;
#50 = AXIS2_PLACEMENT_3D ( 'NONE', #75, #108, #142 ) ;
#51 = COORDINATED_UNIVERSAL_TIME_OFFSET ( 2, 0, .AHEAD. ) ;
#52 = COORDINATED_UNIVERSAL_TIME_OFFSET ( 2, 0, .AHEAD. ) ;
#53 =( NAMED_UNIT ( * ) SI_UNIT ( $, .STERADIAN. ) SOLID_ANGLE_UNIT ( ) );
#54 = CARTESIAN_POINT ( 'NONE',  ( 4.275028564656821600, -2.142950867779458000, -0.0001941774130715437100 ) ) ;
#55 = CARTESIAN_POINT ( 'NONE',  ( 0.0000000000000000000, 1.421085471520200100E-014, 181.6000000000000200 ) ) ;
#56 = CARTESIAN_POINT ( 'NONE',  ( -2.137680808169509600, -2.142950867779459800, -0.03792752414112327000 ) ) ;
#57 = PERSON_AND_ORGANIZATION_ROLE ( 'design_supplier' ) ;
#58 = CARTESIAN_POINT ( 'NONE',  ( 6.406023949185788000, 6.426168367040141000, 0.2268288382184459300 ) ) ;
#59 = CARTESIAN_POINT ( 'NONE',  ( 4.275028564656819800, 2.142950867779437100, -0.0001941774130703239800 ) ) ;
#60 = ORIENTED_EDGE ( 'NONE', *, *, #199, .F. ) ;
#61 = ADVANCED_FACE ( 'NONE', ( #145 ), #212, .T. ) ;
#62 = ORIENTED_EDGE ( 'NONE', *, *, #130, .T. ) ;
#63 = CC_DESIGN_PERSON_AND_ORGANIZATION_ASSIGNMENT ( #8, #84, ( #146 ) ) ;
#64 = DIRECTION ( 'NONE',  ( 1.000000000000000000, 3.200283699100450000E-016, 6.000124531530780400E-016 ) ) ;
#65 = ORIENTED_EDGE ( 'NONE', *, *, #78, .T. ) ;
#66 = SECURITY_CLASSIFICATION_LEVEL ( 'unclassified' ) ;
#67 = CARTESIAN_POINT ( 'NONE',  ( -6.406023949185756000, -6.426168367040164100, 0.2268288382184513500 ) ) ;
#68 = DIRECTION ( 'NONE',  ( -2.217283669810570000E-032, -1.152901140418150100E-016, 1.000000000000000000 ) ) ;
#69 = APPROVAL_STATUS ( 'not_yet_approved' ) ;
#70 = FACE_OUTER_BOUND ( 'NONE', #107, .T. ) ;
#71 = DIRECTION ( 'NONE',  ( 0.0000000000000000000, -1.000000000000000000, -1.152498372327111000E-016 ) ) ;
#72 = CARTESIAN_POINT ( 'NONE',  ( 4.271459035380183300, 6.426168367040138400, 0.1514369052697002200 ) ) ;
#73 = DESIGN_CONTEXT ( 'detailed design', #3, 'design' ) ;
#74 = CC_DESIGN_APPROVAL ( #215, ( #192 ) ) ;
#75 = CARTESIAN_POINT ( 'NONE',  ( 2.498001805406599800E-016, 8.881784197001231600E-016, 3.000000000000000000 ) ) ;
#76 = APPROVAL_DATE_TIME ( #117, #215 ) ;
#77 = ORIENTED_EDGE ( 'NONE', *, *, #144, .T. ) ;
#78 = EDGE_CURVE ( 'NONE', #22, #4, #153, .T. ) ;
#79 = CC_DESIGN_APPROVAL ( #204, ( #126 ) ) ;
#80 =( BOUNDED_SURFACE ( )  B_SPLINE_SURFACE ( 3, 3, ( 
 ( #190, #205, #85, #42 ),
 ( #151, #168, #54, #165 ),
 ( #81, #99, #59, #27 ),
 ( #48, #178, #72, #58 ) ),
 .UNSPECIFIED., .F., .F., .F. ) 
 B_SPLINE_SURFACE_WITH_KNOTS ( ( 4, 4 ),
 ( 4, 4 ),
 ( 0.0000000000000000000, 1.000000000000000000 ),
 ( 0.0000000000000000000, 1.000000000000000000 ),
 .UNSPECIFIED. ) 
 GEOMETRIC_REPRESENTATION_ITEM ( )  RATIONAL_B_SPLINE_SURFACE ( (
 ( 1.000000000000000000, 0.9998961330176086000, 0.9998961330176086000, 1.000000000000000000),
 ( 0.9995824703934259600, 0.9994786467785749000, 0.9994786467785749000, 0.9995824703934259600),
 ( 0.9995824703934259600, 0.9994786467785749000, 0.9994786467785749000, 0.9995824703934259600),
 ( 1.000000000000000000, 0.9998961330176086000, 0.9998961330176086000, 1.000000000000000000) ) ) 
 REPRESENTATION_ITEM ( '' )  SURFACE ( )  );
#81 = CARTESIAN_POINT ( 'NONE',  ( -5.302767401960941400E-014, 2.142950867779434900, -0.03792752414113865400 ) ) ;
#82 = CALENDAR_DATE ( 2019, 24, 1 ) ;
#83 = LINE ( 'NONE', #138, #124 ) ;
#84 = PERSON_AND_ORGANIZATION_ROLE ( 'design_owner' ) ;
#85 = CARTESIAN_POINT ( 'NONE',  ( 4.271459035380188700, -6.426168367040160600, 0.1514369052697002200 ) ) ;
#86 = CARTESIAN_POINT ( 'NONE',  ( 1.027450897999229200E-015, 6.350000000000000500, 0.1110540556257457300 ) ) ;
#87 = AXIS2_PLACEMENT_3D ( 'NONE', #103, #32, #105 ) ;
#88 = PERSON_AND_ORGANIZATION_ROLE ( 'creator' ) ;
#89 = LOCAL_TIME ( 14, 15, 57.00000000000000000, #51 ) ;
#90 = CARTESIAN_POINT ( 'NONE',  ( 2.498001805406599800E-016, -6.349999999999998800, 2.999999999999999100 ) ) ;
#91 = CARTESIAN_POINT ( 'NONE',  ( -6.411377269876424200, -2.142950867779460200, 0.07526075829648178100 ) ) ;
#92 = LOCAL_TIME ( 14, 15, 57.00000000000000000, #52 ) ;
#93 = CIRCLE ( 'NONE', #164, 6.349999999999999600 ) ;
#94 = PRODUCT_RELATED_PRODUCT_CATEGORY ( 'detail', '', ( #146 ) ) ;
#95 = PERSON_AND_ORGANIZATION ( #109, #47 ) ;
#96 = EDGE_LOOP ( 'NONE', ( #39, #148, #77, #26 ) ) ;
#97 = VECTOR ( 'NONE', #5, 1000.000000000000000 ) ;
#98 = MECHANICAL_CONTEXT ( 'NONE', #24, 'mechanical' ) ;
#99 = CARTESIAN_POINT ( 'NONE',  ( 2.137680808169528700, 2.142950867779436700, -0.03792752414113927100 ) ) ;
#100 = ORIENTED_EDGE ( 'NONE', *, *, #15, .T. ) ;
#101 = CARTESIAN_POINT ( 'NONE',  ( 2.498001805406600200E-016, 1.221245327087670000E-015, 0.1110540556257450000 ) ) ;
#102 = APPROVAL_STATUS ( 'not_yet_approved' ) ;
#103 = CARTESIAN_POINT ( 'NONE',  ( 2.498001805406600200E-016, 1.221245327087670000E-015, 0.1110540556257450000 ) ) ;
#104 = AXIS2_PLACEMENT_3D ( 'NONE', #10, #21, #129 ) ;
#105 = DIRECTION ( 'NONE',  ( 0.0000000000000000000, -1.000000000000000000, -1.152498372327111000E-016 ) ) ;
#106 = CARTESIAN_POINT ( 'NONE',  ( -2.137680808169510400, 2.142950867779435300, -0.03792752414112202800 ) ) ;
#107 = EDGE_LOOP ( 'NONE', ( #65, #143 ) ) ;
#108 = DIRECTION ( 'NONE',  ( 2.217283669810570000E-032, 1.152901140418150100E-016, -1.000000000000000000 ) ) ;
#109 = PERSON ( 'UNSPECIFIED', 'UNSPECIFIED', 'UNSPECIFIED', ('UNSPECIFIED'), ('UNSPECIFIED'), ('UNSPECIFIED') ) ;
#110 = COORDINATED_UNIVERSAL_TIME_OFFSET ( 2, 0, .AHEAD. ) ;
#111 = CLOSED_SHELL ( 'NONE', ( #17, #37, #61, #162, #128 ) ) ;
#112 = LOCAL_TIME ( 14, 15, 57.00000000000000000, #180 ) ;
#113 = FACE_OUTER_BOUND ( 'NONE', #182, .T. ) ;
#114 =( GEOMETRIC_REPRESENTATION_CONTEXT ( 3 ) GLOBAL_UNCERTAINTY_ASSIGNED_CONTEXT ( ( #184 ) ) GLOBAL_UNIT_ASSIGNED_CONTEXT ( ( #194, #198, #53 ) ) REPRESENTATION_CONTEXT ( 'NONE', 'WORKASPACE' ) );
#115 = SHAPE_DEFINITION_REPRESENTATION ( #201, #18 ) ;
#116 = CARTESIAN_POINT ( 'NONE',  ( 2.498001805406599800E-016, 8.881784197001231600E-016, 3.000000000000000000 ) ) ;
#117 = DATE_AND_TIME ( #121, #112 ) ;
#118 = DIRECTION ( 'NONE',  ( 0.0000000000000000000, -1.000000000000000000, -1.152498372327111000E-016 ) ) ;
#119 = CARTESIAN_POINT ( 'NONE',  ( 1.027450897999229200E-015, 6.350000000000000500, 3.000000000000000900 ) ) ;
#120 = MANIFOLD_SOLID_BREP ( 'Imported1', #111 ) ;
#121 = CALENDAR_DATE ( 2019, 24, 1 ) ;
#122 = CARTESIAN_POINT ( 'NONE',  ( 0.0000000000000000000, 13.15799999999999900, 3.000000000000000000 ) ) ;
#123 = AXIS2_PLACEMENT_3D ( 'NONE', #122, #31, #7 ) ;
#124 = VECTOR ( 'NONE', #68, 1000.000000000000000 ) ;
#125 = PERSON_AND_ORGANIZATION ( #109, #47 ) ;
#126 = PRODUCT_DEFINITION ( 'UNKNOWN', '', #20, #73 ) ;
#127 = CALENDAR_DATE ( 2019, 24, 1 ) ;
#128 = ADVANCED_FACE ( 'NONE', ( #14 ), #158, .T. ) ;
#129 = DIRECTION ( 'NONE',  ( 1.000000000000000000, 0.0000000000000000000, 0.0000000000000000000 ) ) ;
#130 = EDGE_CURVE ( 'NONE', #4, #22, #185, .T. ) ;
#131 = DATE_AND_TIME ( #127, #211 ) ;
#132 = CC_DESIGN_PERSON_AND_ORGANIZATION_ASSIGNMENT ( #125, #57, ( #20 ) ) ;
#133 = APPROVAL_ROLE ( '' ) ;
#134 = ORIENTED_EDGE ( 'NONE', *, *, #1, .F. ) ;
#135 = DIRECTION ( 'NONE',  ( 2.217283669810570000E-032, 1.152901140418150100E-016, -1.000000000000000000 ) ) ;
#136 = CARTESIAN_POINT ( 'NONE',  ( 6.505213034913026600E-014, -2.142950867779458000, -0.03792752414112250000 ) ) ;
#137 = CARTESIAN_POINT ( 'NONE',  ( -4.275028564656794900, -2.142950867779460200, -0.0001941774130655128600 ) ) ;
#138 = CARTESIAN_POINT ( 'NONE',  ( 2.498001805406600200E-016, -6.349999999999998800, 0.1110540556257442700 ) ) ;
#139 = LOCAL_TIME ( 14, 15, 57.00000000000000000, #186 ) ;
#140 = DIRECTION ( 'NONE',  ( -2.217283669810570000E-032, -1.152901140418150100E-016, 1.000000000000000000 ) ) ;
#141 = CARTESIAN_POINT ( 'NONE',  ( 2.498001805406600200E-016, 1.221245327087670000E-015, 0.1110540556257450000 ) ) ;
#142 = DIRECTION ( 'NONE',  ( 0.0000000000000000000, -1.000000000000000000, -1.365923996832131600E-016 ) ) ;
#143 = ORIENTED_EDGE ( 'NONE', *, *, #1, .T. ) ;
#144 = EDGE_CURVE ( 'NONE', #4, #167, #83, .T. ) ;
#145 = FACE_OUTER_BOUND ( 'NONE', #197, .T. ) ;
#146 = PRODUCT ( '110-0127E BK7 pl-cx 12.7 F350', '110-0127E BK7 pl-cx 12.7 F350', '', ( #98 ) ) ;
#147 = AXIS2_PLACEMENT_3D ( 'NONE', #141, #46, #71 ) ;
#148 = ORIENTED_EDGE ( 'NONE', *, *, #130, .F. ) ;
#149 = APPLICATION_PROTOCOL_DEFINITION ( 'international standard', 'config_control_design', 1994, #24 ) ;
#150 = CIRCLE ( 'NONE', #50, 6.349999999999999600 ) ;
#151 = CARTESIAN_POINT ( 'NONE',  ( -5.165606387358386600E-014, -2.142950867779458400, -0.03792752414113987500 ) ) ;
#152 = DIRECTION ( 'NONE',  ( 0.0000000000000000000, -1.000000000000000000, -1.365923996832131600E-016 ) ) ;
#153 = CIRCLE ( 'NONE', #155, 6.349999999999999600 ) ;
#154 = CARTESIAN_POINT ( 'NONE',  ( -6.406023949185759600, 6.426168367040137500, 0.2268288382184513500 ) ) ;
#155 = AXIS2_PLACEMENT_3D ( 'NONE', #193, #44, #118 ) ;
#156 = ORIENTED_EDGE ( 'NONE', *, *, #15, .F. ) ;
#157 = AXIS2_PLACEMENT_3D ( 'NONE', #55, #64, #188 ) ;
#158 = PLANE ( 'NONE',  #123 ) ;
#159 = CC_DESIGN_APPROVAL ( #196, ( #20 ) ) ;
#160 = APPROVAL_PERSON_ORGANIZATION ( #2, #196, #133 ) ;
#161 = EDGE_LOOP ( 'NONE', ( #60, #156 ) ) ;
#162 = ADVANCED_FACE ( 'NONE', ( #200 ), #30, .T. ) ;
#163 = CALENDAR_DATE ( 2019, 24, 1 ) ;
#164 = AXIS2_PLACEMENT_3D ( 'NONE', #116, #135, #152 ) ;
#165 = CARTESIAN_POINT ( 'NONE',  ( 6.411377269876458000, -2.142950867779456200, 0.07526075829647635400 ) ) ;
#166 = PERSON_AND_ORGANIZATION ( #109, #47 ) ;
#167 = VERTEX_POINT ( 'NONE', #90 ) ;
#168 = CARTESIAN_POINT ( 'NONE',  ( 2.137680808169530000, -2.142950867779458400, -0.03792752414114049200 ) ) ;
#169 = CC_DESIGN_PERSON_AND_ORGANIZATION_ASSIGNMENT ( #16, #88, ( #20 ) ) ;
#170 = CARTESIAN_POINT ( 'NONE',  ( 2.498001805406600200E-016, -6.349999999999998800, 0.1110540556257442700 ) ) ;
#171 = DATE_TIME_ROLE ( 'creation_date' ) ;
#172 = CARTESIAN_POINT ( 'NONE',  ( 6.245004513516505500E-014, 6.426168367040139300, 0.1137350648307451900 ) ) ;
#173 = APPROVAL_DATE_TIME ( #181, #196 ) ;
#174 = DATE_TIME_ROLE ( 'classification_date' ) ;
#175 = CARTESIAN_POINT ( 'NONE',  ( -2.135895904486775400, 6.426168367040136600, 0.1137350648307444100 ) ) ;
#176 = CARTESIAN_POINT ( 'NONE',  ( -2.135895904486771800, -6.426168367040162400, 0.1137350648307444000 ) ) ;
#177 = PERSON_AND_ORGANIZATION ( #109, #47 ) ;
#178 = CARTESIAN_POINT ( 'NONE',  ( 2.135895904486790500, 6.426168367040138400, 0.1137350648307271900 ) ) ;
#179 = ORIENTED_EDGE ( 'NONE', *, *, #144, .F. ) ;
#180 = COORDINATED_UNIVERSAL_TIME_OFFSET ( 2, 0, .AHEAD. ) ;
#181 = DATE_AND_TIME ( #163, #92 ) ;
#182 = EDGE_LOOP ( 'NONE', ( #35, #187, #100, #179 ) ) ;
#183 = CC_DESIGN_PERSON_AND_ORGANIZATION_ASSIGNMENT ( #95, #41, ( #126 ) ) ;
#184 = UNCERTAINTY_MEASURE_WITH_UNIT (LENGTH_MEASURE( 1.000000000000000100E-005 ), #194, 'distance_accuracy_value', 'NONE');
#185 = CIRCLE ( 'NONE', #87, 6.349999999999999600 ) ;
#186 = COORDINATED_UNIVERSAL_TIME_OFFSET ( 2, 0, .AHEAD. ) ;
#187 = ORIENTED_EDGE ( 'NONE', *, *, #9, .T. ) ;
#188 = DIRECTION ( 'NONE',  ( 3.200283699100447500E-016, -1.000000000000000000, 3.056781455465739200E-016 ) ) ;
#189 = CIRCLE ( 'NONE', #157, 181.6000000000000200 ) ;
#190 = CARTESIAN_POINT ( 'NONE',  ( -5.024160876278517400E-014, -6.426168367040162400, 0.1137350648307278200 ) ) ;
#191 = PERSON_AND_ORGANIZATION_ROLE ( 'classification_officer' ) ;
#192 = SECURITY_CLASSIFICATION ( '', '', #66 ) ;
#193 = CARTESIAN_POINT ( 'NONE',  ( 2.498001805406600200E-016, 1.221245327087670000E-015, 0.1110540556257450000 ) ) ;
#194 =( LENGTH_UNIT ( ) NAMED_UNIT ( * ) SI_UNIT ( .MILLI., .METRE. ) );
#195 = CARTESIAN_POINT ( 'NONE',  ( -6.411377269876425100, 2.142950867779433100, 0.07526075829648300200 ) ) ;
#196 = APPROVAL ( #69, 'UNSPECIFIED' ) ;
#197 = EDGE_LOOP ( 'NONE', ( #134, #62 ) ) ;
#198 =( NAMED_UNIT ( * ) PLANE_ANGLE_UNIT ( ) SI_UNIT ( $, .RADIAN. ) );
#199 = EDGE_CURVE ( 'NONE', #167, #214, #150, .T. ) ;
#200 = FACE_OUTER_BOUND ( 'NONE', #96, .T. ) ;
#201 = PRODUCT_DEFINITION_SHAPE ( 'NONE', 'NONE',  #126 ) ;
#202 = DATE_AND_TIME ( #6, #139 ) ;
#203 = APPROVAL_PERSON_ORGANIZATION ( #29, #215, #40 ) ;
#204 = APPROVAL ( #25, 'UNSPECIFIED' ) ;
#205 = CARTESIAN_POINT ( 'NONE',  ( 2.135895904486794400, -6.426168367040160600, 0.1137350648307271900 ) ) ;
#206 = APPROVAL_ROLE ( '' ) ;
#207 = DIRECTION ( 'NONE',  ( 0.0000000000000000000, -1.000000000000000000, -1.152498372327111000E-016 ) ) ;
#208 = CARTESIAN_POINT ( 'NONE',  ( -4.275028564656794900, 2.142950867779434900, -0.0001941774130642795500 ) ) ;
#209 = CC_DESIGN_DATE_AND_TIME_ASSIGNMENT ( #213, #171, ( #126 ) ) ;
#210 = CARTESIAN_POINT ( 'NONE',  ( -4.271459035380159400, -6.426168367040162400, 0.1514369052697062700 ) ) ;
#211 = LOCAL_TIME ( 14, 15, 57.00000000000000000, #110 ) ;
#212 =( BOUNDED_SURFACE ( )  B_SPLINE_SURFACE ( 3, 3, ( 
 ( #67, #210, #176, #28 ),
 ( #91, #137, #56, #136 ),
 ( #195, #208, #106, #12 ),
 ( #154, #45, #175, #172 ) ),
 .UNSPECIFIED., .F., .F., .F. ) 
 B_SPLINE_SURFACE_WITH_KNOTS ( ( 4, 4 ),
 ( 4, 4 ),
 ( 0.0000000000000000000, 1.000000000000000000 ),
 ( 0.0000000000000000000, 1.000000000000000000 ),
 .UNSPECIFIED. ) 
 GEOMETRIC_REPRESENTATION_ITEM ( )  RATIONAL_B_SPLINE_SURFACE ( (
 ( 1.000000000000000000, 0.9998961330176086000, 0.9998961330176086000, 1.000000000000000000),
 ( 0.9995824703934259600, 0.9994786467785749000, 0.9994786467785749000, 0.9995824703934259600),
 ( 0.9995824703934259600, 0.9994786467785749000, 0.9994786467785749000, 0.9995824703934259600),
 ( 1.000000000000000000, 0.9998961330176086000, 0.9998961330176086000, 1.000000000000000000) ) ) 
 REPRESENTATION_ITEM ( '' )  SURFACE ( )  );
#213 = DATE_AND_TIME ( #82, #89 ) ;
#214 = VERTEX_POINT ( 'NONE', #119 ) ;
#215 = APPROVAL ( #102, 'UNSPECIFIED' ) ;
ENDSEC;
END-ISO-10303-21;
