ISO-10303-21;
HEADER;
FILE_DESCRIPTION (( 'STEP AP203' ),
    '1' );
FILE_NAME ('110-0126E BK7 pl-cx 12.7 F300.STEP',
    '2019-01-24T12:13:29',
    ( '' ),
    ( '' ),
    'SwSTEP 2.0',
    'SolidWorks 2017',
    '' );
FILE_SCHEMA (( 'CONFIG_CONTROL_DESIGN' ));
ENDSEC;

DATA;
#1 = PERSON_AND_ORGANIZATION ( #45, #111 ) ;
#2 = VECTOR ( 'NONE', #42, 1000.000000000000000 ) ;
#3 = DIRECTION ( 'NONE',  ( 2.232019716437630100E-032, 1.160563310664070000E-016, -1.000000000000000000 ) ) ;
#4 = PERSON_AND_ORGANIZATION ( #45, #111 ) ;
#5 = CARTESIAN_POINT ( 'NONE',  ( -4.270739896279461200, -6.426156570270336500, 0.1774368098818916200 ) ) ;
#6 = CC_DESIGN_APPROVAL ( #83, ( #133 ) ) ;
#7 = CARTESIAN_POINT ( 'NONE',  ( 2.602085213965210600E-015, -6.426156570270336500, 0.1332685444211698900 ) ) ;
#8 = CARTESIAN_POINT ( 'NONE',  ( 2.602085213965210600E-015, 6.426156570270371100, 0.1332685444211698900 ) ) ;
#9 = PRODUCT ( '110-0126E BK7 pl-cx 12.7 F300', '110-0126E BK7 pl-cx 12.7 F300', '', ( #81 ) ) ;
#10 = DIRECTION ( 'NONE',  ( 0.0000000000000000000, -1.000000000000000000, -1.365923996832131600E-016 ) ) ;
#11 = DATE_AND_TIME ( #126, #44 ) ;
#12 = EDGE_CURVE ( 'NONE', #80, #122, #55, .T. ) ;
#13 = DIRECTION ( 'NONE',  ( 0.0000000000000000000, -1.000000000000000000, -1.152498372327111000E-016 ) ) ;
#14 = SECURITY_CLASSIFICATION_LEVEL ( 'unclassified' ) ;
#15 = DATE_AND_TIME ( #136, #17 ) ;
#16 = ORIENTED_EDGE ( 'NONE', *, *, #108, .T. ) ;
#17 = LOCAL_TIME ( 14, 13, 29.00000000000000000, #60 ) ;
#18 = APPROVAL_PERSON_ORGANIZATION ( #31, #83, #78 ) ;
#19 = EDGE_LOOP ( 'NONE', ( #100, #40 ) ) ;
#20 = CARTESIAN_POINT ( 'NONE',  ( 2.139060207711192400E-016, -2.143280714395879600, -0.04444832583365919400 ) ) ;
#21 = ADVANCED_FACE ( 'NONE', ( #66 ), #131, .T. ) ;
#22 = ADVANCED_FACE ( 'NONE', ( #113 ), #84, .T. ) ;
#23 = DATE_AND_TIME ( #116, #176 ) ;
#24 = ORIENTED_EDGE ( 'NONE', *, *, #53, .T. ) ;
#25 = CARTESIAN_POINT ( 'NONE',  ( 6.411860749631530100, 2.143280714395914300, 0.08818960973491964100 ) ) ;
#26 = PLANE ( 'NONE',  #166 ) ;
#27 = CARTESIAN_POINT ( 'NONE',  ( 2.498001805406600200E-016, 1.221245327087670000E-015, 0.1301272035132070000 ) ) ;
#28 = LINE ( 'NONE', #173, #2 ) ;
#29 = CARTESIAN_POINT ( 'NONE',  ( 0.0000000000000000000, 0.0000000000000000000, 0.0000000000000000000 ) ) ;
#30 = APPROVAL_STATUS ( 'not_yet_approved' ) ;
#31 = PERSON_AND_ORGANIZATION ( #45, #111 ) ;
#32 = DATE_TIME_ROLE ( 'creation_date' ) ;
#33 = EDGE_CURVE ( 'NONE', #167, #213, #165, .T. ) ;
#34 = LOCAL_TIME ( 14, 13, 29.00000000000000000, #130 ) ;
#35 = EDGE_LOOP ( 'NONE', ( #182, #168 ) ) ;
#36 = CARTESIAN_POINT ( 'NONE',  ( 2.138049043363769600, 2.143280714395914700, -0.04444832583365756300 ) ) ;
#37 = CC_DESIGN_PERSON_AND_ORGANIZATION_ASSIGNMENT ( #4, #144, ( #9 ) ) ;
#38 = CARTESIAN_POINT ( 'NONE',  ( 4.270739896279508200, -6.426156570270336500, 0.1774368098818777100 ) ) ;
#39 = DIRECTION ( 'NONE',  ( -2.232019716437630100E-032, -1.160563310664070000E-016, 1.000000000000000000 ) ) ;
#40 = ORIENTED_EDGE ( 'NONE', *, *, #64, .T. ) ;
#41 = CARTESIAN_POINT ( 'NONE',  ( -2.135598343654462500, 6.426156570270371100, 0.1332685444211704500 ) ) ;
#42 = DIRECTION ( 'NONE',  ( -2.232019716437630100E-032, -1.160563310664070000E-016, 1.000000000000000000 ) ) ;
#43 = CARTESIAN_POINT ( 'NONE',  ( 2.498001805406600200E-016, -6.349999999999998800, 0.1301272035132062800 ) ) ;
#44 = LOCAL_TIME ( 14, 13, 29.00000000000000000, #54 ) ;
#45 = PERSON ( 'UNSPECIFIED', 'UNSPECIFIED', 'UNSPECIFIED', ('UNSPECIFIED'), ('UNSPECIFIED'), ('UNSPECIFIED') ) ;
#46 = CARTESIAN_POINT ( 'NONE',  ( 4.263256414560599900E-014, 5.684341886080800200E-014, 155.0000000000000000 ) ) ;
#47 = APPLICATION_PROTOCOL_DEFINITION ( 'international standard', 'config_control_design', 1994, #211 ) ;
#48 = PERSON_AND_ORGANIZATION_ROLE ( 'classification_officer' ) ;
#49 = CARTESIAN_POINT ( 'NONE',  ( 0.0000000000000000000, 13.15799999999999900, 3.000000000000000000 ) ) ;
#50 = UNCERTAINTY_MEASURE_WITH_UNIT (LENGTH_MEASURE( 1.000000000000000100E-005 ), #174, 'distance_accuracy_value', 'NONE');
#51 = ORIENTED_EDGE ( 'NONE', *, *, #149, .T. ) ;
#52 = AXIS2_PLACEMENT_3D ( 'NONE', #156, #206, #90 ) ;
#53 = EDGE_CURVE ( 'NONE', #213, #122, #82, .T. ) ;
#54 = COORDINATED_UNIVERSAL_TIME_OFFSET ( 2, 0, .AHEAD. ) ;
#55 = CIRCLE ( 'NONE', #105, 6.349999999999999600 ) ;
#56 = CARTESIAN_POINT ( 'NONE',  ( 1.027450897999229200E-015, 6.350000000000000500, 0.1301272035132077200 ) ) ;
#57 = AXIS2_PLACEMENT_3D ( 'NONE', #76, #190, #10 ) ;
#58 = CARTESIAN_POINT ( 'NONE',  ( -6.411860749631460800, -2.143280714395879600, 0.08818960973493060500 ) ) ;
#59 = CC_DESIGN_APPROVAL ( #158, ( #214 ) ) ;
#60 = COORDINATED_UNIVERSAL_TIME_OFFSET ( 2, 0, .AHEAD. ) ;
#61 = ORIENTED_EDGE ( 'NONE', *, *, #53, .F. ) ;
#62 = CC_DESIGN_DATE_AND_TIME_ASSIGNMENT ( #215, #32, ( #178 ) ) ;
#63 = DIRECTION ( 'NONE',  ( 1.000000000000000000, 0.0000000000000000000, -0.0000000000000000000 ) ) ;
#64 = EDGE_CURVE ( 'NONE', #167, #213, #198, .T. ) ;
#65 = PERSON_AND_ORGANIZATION ( #45, #111 ) ;
#66 = FACE_OUTER_BOUND ( 'NONE', #77, .T. ) ;
#67 = PERSON_AND_ORGANIZATION ( #45, #111 ) ;
#68 =( BOUNDED_SURFACE ( )  B_SPLINE_SURFACE ( 3, 3, ( 
 ( #204, #5, #159, #7 ),
 ( #58, #137, #171, #75 ),
 ( #92, #118, #208, #138 ),
 ( #107, #207, #41, #8 ) ),
 .UNSPECIFIED., .F., .F., .F. ) 
 B_SPLINE_SURFACE_WITH_KNOTS ( ( 4, 4 ),
 ( 4, 4 ),
 ( 0.0000000000000000000, 1.000000000000000000 ),
 ( 0.0000000000000000000, 1.000000000000000000 ),
 .UNSPECIFIED. ) 
 GEOMETRIC_REPRESENTATION_ITEM ( )  RATIONAL_B_SPLINE_SURFACE ( (
 ( 1.000000000000000000, 0.9998574042006153100, 0.9998574042006153100, 1.000000000000000000),
 ( 0.9994268019594789700, 0.9992842878957271000, 0.9992842878957271000, 0.9994268019594789700),
 ( 0.9994268019594789700, 0.9992842878957271000, 0.9992842878957271000, 0.9994268019594789700),
 ( 1.000000000000000000, 0.9998574042006153100, 0.9998574042006153100, 1.000000000000000000) ) ) 
 REPRESENTATION_ITEM ( '' )  SURFACE ( )  );
#69 = ORIENTED_EDGE ( 'NONE', *, *, #102, .F. ) ;
#70 = CARTESIAN_POINT ( 'NONE',  ( 2.498001805406600200E-016, 1.221245327087670000E-015, 0.1301272035132070000 ) ) ;
#71 = CARTESIAN_POINT ( 'NONE',  ( 6.404511271225572100, -6.426156570270336500, 0.2657544461759510600 ) ) ;
#72 = APPROVAL_DATE_TIME ( #23, #112 ) ;
#73 = CIRCLE ( 'NONE', #88, 6.349999999999999600 ) ;
#74 = CARTESIAN_POINT ( 'NONE',  ( 6.404511271225572100, 6.426156570270371100, 0.2657544461759510600 ) ) ;
#75 = CARTESIAN_POINT ( 'NONE',  ( 2.602085213965210200E-015, -2.143280714395879600, -0.04444832583365604400 ) ) ;
#76 = CARTESIAN_POINT ( 'NONE',  ( 2.498001805406599800E-016, 8.881784197001235600E-016, 3.000000000000000000 ) ) ;
#77 = EDGE_LOOP ( 'NONE', ( #61, #169, #97, #145 ) ) ;
#78 = APPROVAL_ROLE ( '' ) ;
#79 = COORDINATED_UNIVERSAL_TIME_OFFSET ( 2, 0, .AHEAD. ) ;
#80 = VERTEX_POINT ( 'NONE', #161 ) ;
#81 = MECHANICAL_CONTEXT ( 'NONE', #94, 'mechanical' ) ;
#82 = LINE ( 'NONE', #56, #157 ) ;
#83 = APPROVAL ( #143, 'UNSPECIFIED' ) ;
#84 =( BOUNDED_SURFACE ( )  B_SPLINE_SURFACE ( 3, 3, ( 
 ( #86, #115, #38, #71 ),
 ( #20, #181, #185, #87 ),
 ( #201, #36, #160, #25 ),
 ( #91, #89, #192, #74 ) ),
 .UNSPECIFIED., .F., .F., .F. ) 
 B_SPLINE_SURFACE_WITH_KNOTS ( ( 4, 4 ),
 ( 4, 4 ),
 ( 0.0000000000000000000, 1.000000000000000000 ),
 ( 0.0000000000000000000, 1.000000000000000000 ),
 .UNSPECIFIED. ) 
 GEOMETRIC_REPRESENTATION_ITEM ( )  RATIONAL_B_SPLINE_SURFACE ( (
 ( 1.000000000000000000, 0.9998574042006153100, 0.9998574042006153100, 1.000000000000000000),
 ( 0.9994268019594789700, 0.9992842878957271000, 0.9992842878957271000, 0.9994268019594789700),
 ( 0.9994268019594789700, 0.9992842878957271000, 0.9992842878957271000, 0.9994268019594789700),
 ( 1.000000000000000000, 0.9998574042006153100, 0.9998574042006153100, 1.000000000000000000) ) ) 
 REPRESENTATION_ITEM ( '' )  SURFACE ( )  );
#85 = COORDINATED_UNIVERSAL_TIME_OFFSET ( 2, 0, .AHEAD. ) ;
#86 = CARTESIAN_POINT ( 'NONE',  ( 2.625276337585937300E-016, -6.426156570270336500, 0.1332685444211667600 ) ) ;
#87 = CARTESIAN_POINT ( 'NONE',  ( 6.411860749631530100, -2.143280714395879600, 0.08818960973491744800 ) ) ;
#88 = AXIS2_PLACEMENT_3D ( 'NONE', #96, #109, #13 ) ;
#89 = CARTESIAN_POINT ( 'NONE',  ( 2.135598343654487400, 6.426156570270371100, 0.1332685444211661700 ) ) ;
#90 = DIRECTION ( 'NONE',  ( 0.0000000000000000000, -1.000000000000000000, -1.152498372327111000E-016 ) ) ;
#91 = CARTESIAN_POINT ( 'NONE',  ( 2.625276337585937300E-016, 6.426156570270371100, 0.1332685444211667600 ) ) ;
#92 = CARTESIAN_POINT ( 'NONE',  ( -6.411860749631460800, 2.143280714395914300, 0.08818960973493283900 ) ) ;
#93 = CLOSED_SHELL ( 'NONE', ( #22, #139, #119, #21, #172 ) ) ;
#94 = APPLICATION_CONTEXT ( 'configuration controlled 3d designs of mechanical parts and assemblies' ) ;
#95 = APPLICATION_PROTOCOL_DEFINITION ( 'international standard', 'config_control_design', 1994, #94 ) ;
#96 = CARTESIAN_POINT ( 'NONE',  ( 2.498001805406600200E-016, 1.221245327087670000E-015, 0.1301272035132070000 ) ) ;
#97 = ORIENTED_EDGE ( 'NONE', *, *, #102, .T. ) ;
#98 = AXIS2_PLACEMENT_3D ( 'NONE', #29, #194, #210 ) ;
#99 = APPROVAL_PERSON_ORGANIZATION ( #65, #158, #163 ) ;
#100 = ORIENTED_EDGE ( 'NONE', *, *, #33, .F. ) ;
#101 = DIRECTION ( 'NONE',  ( 0.0000000000000000000, -1.000000000000000000, -1.152498372327111000E-016 ) ) ;
#102 = EDGE_CURVE ( 'NONE', #167, #80, #28, .T. ) ;
#103 = CYLINDRICAL_SURFACE ( 'NONE', #52, 6.349999999999999600 ) ;
#104 = PERSON_AND_ORGANIZATION ( #45, #111 ) ;
#105 = AXIS2_PLACEMENT_3D ( 'NONE', #152, #3, #151 ) ;
#106 = FACE_OUTER_BOUND ( 'NONE', #117, .T. ) ;
#107 = CARTESIAN_POINT ( 'NONE',  ( -6.404511271225502800, 6.426156570270371100, 0.2657544461759642200 ) ) ;
#108 = EDGE_CURVE ( 'NONE', #122, #80, #150, .T. ) ;
#109 = DIRECTION ( 'NONE',  ( 2.232019716437630100E-032, 1.160563310664070000E-016, -1.000000000000000000 ) ) ;
#110 = CARTESIAN_POINT ( 'NONE',  ( 1.027450897999229200E-015, 6.350000000000000500, 0.1301272035132077200 ) ) ;
#111 = ORGANIZATION ( 'UNSPECIFIED', 'UNSPECIFIED', '' ) ;
#112 = APPROVAL ( #30, 'UNSPECIFIED' ) ;
#113 = FACE_OUTER_BOUND ( 'NONE', #193, .T. ) ;
#114 = CC_DESIGN_PERSON_AND_ORGANIZATION_ASSIGNMENT ( #1, #175, ( #133 ) ) ;
#115 = CARTESIAN_POINT ( 'NONE',  ( 2.135598343654487400, -6.426156570270336500, 0.1332685444211661700 ) ) ;
#116 = CALENDAR_DATE ( 2019, 24, 1 ) ;
#117 = EDGE_LOOP ( 'NONE', ( #205, #24, #16, #69 ) ) ;
#118 = CARTESIAN_POINT ( 'NONE',  ( -4.275640771508800100, 2.143280714395914700, -0.0002293752075096887700 ) ) ;
#119 = ADVANCED_FACE ( 'NONE', ( #200 ), #68, .T. ) ;
#120 = DIRECTION ( 'NONE',  ( 1.000000000000000000, 0.0000000000000000000, 0.0000000000000000000 ) ) ;
#121 = DIRECTION ( 'NONE',  ( 0.0000000000000000000, -1.000000000000000000, -1.152498372327111000E-016 ) ) ;
#122 = VERTEX_POINT ( 'NONE', #187 ) ;
#123 = AXIS2_PLACEMENT_3D ( 'NONE', #70, #134, #101 ) ;
#124 = PERSON_AND_ORGANIZATION_ROLE ( 'design_supplier' ) ;
#125 = APPROVAL_STATUS ( 'not_yet_approved' ) ;
#126 = CALENDAR_DATE ( 2019, 24, 1 ) ;
#127 = DIRECTION ( 'NONE',  ( 0.0000000000000000000, 0.0000000000000000000, 1.000000000000000000 ) ) ;
#128 = APPROVAL_ROLE ( '' ) ;
#129 = CC_DESIGN_DATE_AND_TIME_ASSIGNMENT ( #11, #212, ( #214 ) ) ;
#130 = COORDINATED_UNIVERSAL_TIME_OFFSET ( 2, 0, .AHEAD. ) ;
#131 = CYLINDRICAL_SURFACE ( 'NONE', #123, 6.349999999999999600 ) ;
#132 = PERSON_AND_ORGANIZATION ( #45, #111 ) ;
#133 = PRODUCT_DEFINITION_FORMATION_WITH_SPECIFIED_SOURCE ( 'ANY', '', #9, .NOT_KNOWN. ) ;
#134 = DIRECTION ( 'NONE',  ( -2.232019716437630100E-032, -1.160563310664070000E-016, 1.000000000000000000 ) ) ;
#135 = CC_DESIGN_PERSON_AND_ORGANIZATION_ASSIGNMENT ( #104, #124, ( #133 ) ) ;
#136 = CALENDAR_DATE ( 2019, 24, 1 ) ;
#137 = CARTESIAN_POINT ( 'NONE',  ( -4.275640771508799200, -2.143280714395880100, -0.0002293752075119113900 ) ) ;
#138 = CARTESIAN_POINT ( 'NONE',  ( 1.734723475976806900E-015, 2.143280714395914300, -0.04444832583365385800 ) ) ;
#139 = ADVANCED_FACE ( 'NONE', ( #106 ), #103, .T. ) ;
#140 = DIRECTION ( 'NONE',  ( 0.0000000000000000000, -1.000000000000000000, -3.581364595565020900E-016 ) ) ;
#141 = APPROVAL_DATE_TIME ( #15, #158 ) ;
#142 = FACE_OUTER_BOUND ( 'NONE', #35, .T. ) ;
#143 = APPROVAL_STATUS ( 'not_yet_approved' ) ;
#144 = PERSON_AND_ORGANIZATION_ROLE ( 'design_owner' ) ;
#145 = ORIENTED_EDGE ( 'NONE', *, *, #12, .T. ) ;
#146 = CC_DESIGN_PERSON_AND_ORGANIZATION_ASSIGNMENT ( #170, #48, ( #214 ) ) ;
#147 = DESIGN_CONTEXT ( 'detailed design', #211, 'design' ) ;
#148 = APPROVAL_DATE_TIME ( #184, #83 ) ;
#149 = EDGE_CURVE ( 'NONE', #213, #167, #73, .T. ) ;
#150 = CIRCLE ( 'NONE', #57, 6.349999999999999600 ) ;
#151 = DIRECTION ( 'NONE',  ( 0.0000000000000000000, -1.000000000000000000, -1.365923996832131600E-016 ) ) ;
#152 = CARTESIAN_POINT ( 'NONE',  ( 2.498001805406599800E-016, 8.881784197001235600E-016, 3.000000000000000000 ) ) ;
#153 = AXIS2_PLACEMENT_3D ( 'NONE', #27, #154, #121 ) ;
#154 = DIRECTION ( 'NONE',  ( 2.232019716437630100E-032, 1.160563310664070000E-016, -1.000000000000000000 ) ) ;
#155 = LOCAL_TIME ( 14, 13, 29.00000000000000000, #85 ) ;
#156 = CARTESIAN_POINT ( 'NONE',  ( 2.498001805406600200E-016, 1.221245327087670000E-015, 0.1301272035132070000 ) ) ;
#157 = VECTOR ( 'NONE', #39, 1000.000000000000000 ) ;
#158 = APPROVAL ( #125, 'UNSPECIFIED' ) ;
#159 = CARTESIAN_POINT ( 'NONE',  ( -2.135598343654462500, -6.426156570270336500, 0.1332685444211704500 ) ) ;
#160 = CARTESIAN_POINT ( 'NONE',  ( 4.275640771508847100, 2.143280714395914700, -0.0002293752075235665300 ) ) ;
#161 = CARTESIAN_POINT ( 'NONE',  ( 2.498001805406599800E-016, -6.349999999999998800, 2.999999999999999100 ) ) ;
#162 = SHAPE_DEFINITION_REPRESENTATION ( #202, #199 ) ;
#163 = APPROVAL_ROLE ( '' ) ;
#164 = CALENDAR_DATE ( 2019, 24, 1 ) ;
#165 = CIRCLE ( 'NONE', #209, 155.0000000000000000 ) ;
#166 = AXIS2_PLACEMENT_3D ( 'NONE', #49, #127, #63 ) ;
#167 = VERTEX_POINT ( 'NONE', #43 ) ;
#168 = ORIENTED_EDGE ( 'NONE', *, *, #108, .F. ) ;
#169 = ORIENTED_EDGE ( 'NONE', *, *, #64, .F. ) ;
#170 = PERSON_AND_ORGANIZATION ( #45, #111 ) ;
#171 = CARTESIAN_POINT ( 'NONE',  ( -2.138049043363744700, -2.143280714395880100, -0.04444832583365550300 ) ) ;
#172 = ADVANCED_FACE ( 'NONE', ( #142 ), #26, .T. ) ;
#173 = CARTESIAN_POINT ( 'NONE',  ( 2.498001805406600200E-016, -6.349999999999998800, 0.1301272035132062800 ) ) ;
#174 =( LENGTH_UNIT ( ) NAMED_UNIT ( * ) SI_UNIT ( .MILLI., .METRE. ) );
#175 = PERSON_AND_ORGANIZATION_ROLE ( 'creator' ) ;
#176 = LOCAL_TIME ( 14, 13, 29.00000000000000000, #79 ) ;
#177 = PERSON_AND_ORGANIZATION_ROLE ( 'creator' ) ;
#178 = PRODUCT_DEFINITION ( 'UNKNOWN', '', #133, #147 ) ;
#179 = CC_DESIGN_PERSON_AND_ORGANIZATION_ASSIGNMENT ( #132, #177, ( #178 ) ) ;
#180 = APPROVAL_PERSON_ORGANIZATION ( #67, #112, #128 ) ;
#181 = CARTESIAN_POINT ( 'NONE',  ( 2.138049043363769600, -2.143280714395880100, -0.04444832583365978400 ) ) ;
#182 = ORIENTED_EDGE ( 'NONE', *, *, #12, .F. ) ;
#183 = CC_DESIGN_SECURITY_CLASSIFICATION ( #214, ( #133 ) ) ;
#184 = DATE_AND_TIME ( #196, #155 ) ;
#185 = CARTESIAN_POINT ( 'NONE',  ( 4.275640771508847100, -2.143280714395880100, -0.0002293752075257891700 ) ) ;
#186 = CC_DESIGN_APPROVAL ( #112, ( #178 ) ) ;
#187 = CARTESIAN_POINT ( 'NONE',  ( 1.027450897999229200E-015, 6.350000000000000500, 3.000000000000000900 ) ) ;
#188 =( NAMED_UNIT ( * ) PLANE_ANGLE_UNIT ( ) SI_UNIT ( $, .RADIAN. ) );
#189 = ORIENTED_EDGE ( 'NONE', *, *, #33, .T. ) ;
#190 = DIRECTION ( 'NONE',  ( 2.232019716437630100E-032, 1.160563310664070000E-016, -1.000000000000000000 ) ) ;
#191 = MANIFOLD_SOLID_BREP ( 'Imported1', #93 ) ;
#192 = CARTESIAN_POINT ( 'NONE',  ( 4.270739896279508200, 6.426156570270371100, 0.1774368098818777100 ) ) ;
#193 = EDGE_LOOP ( 'NONE', ( #51, #189 ) ) ;
#194 = DIRECTION ( 'NONE',  ( 0.0000000000000000000, 0.0000000000000000000, 1.000000000000000000 ) ) ;
#195 =( NAMED_UNIT ( * ) SI_UNIT ( $, .STERADIAN. ) SOLID_ANGLE_UNIT ( ) );
#196 = CALENDAR_DATE ( 2019, 24, 1 ) ;
#197 =( GEOMETRIC_REPRESENTATION_CONTEXT ( 3 ) GLOBAL_UNCERTAINTY_ASSIGNED_CONTEXT ( ( #50 ) ) GLOBAL_UNIT_ASSIGNED_CONTEXT ( ( #174, #188, #195 ) ) REPRESENTATION_CONTEXT ( 'NONE', 'WORKASPACE' ) );
#198 = CIRCLE ( 'NONE', #153, 6.349999999999999600 ) ;
#199 = ADVANCED_BREP_SHAPE_REPRESENTATION ( '110-0126E BK7 pl-cx 12.7 F300', ( #191, #98 ), #197 ) ;
#200 = FACE_OUTER_BOUND ( 'NONE', #19, .T. ) ;
#201 = CARTESIAN_POINT ( 'NONE',  ( 2.139060207711207400E-016, 2.143280714395914300, -0.04444832583365696700 ) ) ;
#202 = PRODUCT_DEFINITION_SHAPE ( 'NONE', 'NONE',  #178 ) ;
#203 = PRODUCT_RELATED_PRODUCT_CATEGORY ( 'detail', '', ( #9 ) ) ;
#204 = CARTESIAN_POINT ( 'NONE',  ( -6.404511271225502800, -6.426156570270336500, 0.2657544461759642200 ) ) ;
#205 = ORIENTED_EDGE ( 'NONE', *, *, #149, .F. ) ;
#206 = DIRECTION ( 'NONE',  ( -2.232019716437630100E-032, -1.160563310664070000E-016, 1.000000000000000000 ) ) ;
#207 = CARTESIAN_POINT ( 'NONE',  ( -4.270739896279461200, 6.426156570270371100, 0.1774368098818916200 ) ) ;
#208 = CARTESIAN_POINT ( 'NONE',  ( -2.138049043363745100, 2.143280714395914700, -0.04444832583365329600 ) ) ;
#209 = AXIS2_PLACEMENT_3D ( 'NONE', #46, #120, #140 ) ;
#210 = DIRECTION ( 'NONE',  ( 1.000000000000000000, 0.0000000000000000000, 0.0000000000000000000 ) ) ;
#211 = APPLICATION_CONTEXT ( 'configuration controlled 3d designs of mechanical parts and assemblies' ) ;
#212 = DATE_TIME_ROLE ( 'classification_date' ) ;
#213 = VERTEX_POINT ( 'NONE', #110 ) ;
#214 = SECURITY_CLASSIFICATION ( '', '', #14 ) ;
#215 = DATE_AND_TIME ( #164, #34 ) ;
ENDSEC;
END-ISO-10303-21;
