ISO-10303-21;
HEADER;
FILE_DESCRIPTION (( 'STEP AP203' ),
    '1' );
FILE_NAME ('110-0125E BK7 pl-cx 12.7 F250.STEP',
    '2018-12-21T06:29:14',
    ( '' ),
    ( '' ),
    'SwSTEP 2.0',
    'SolidWorks 2017',
    '' );
FILE_SCHEMA (( 'CONFIG_CONTROL_DESIGN' ));
ENDSEC;

DATA;
#1 = AXIS2_PLACEMENT_3D ( 'NONE', #176, #131, #38 ) ;
#2 = CARTESIAN_POINT ( 'NONE',  ( -6.412623790755750600, 2.143801280824260100, 0.1054171351548171400 ) ) ;
#3 =( LENGTH_UNIT ( ) NAMED_UNIT ( * ) SI_UNIT ( .MILLI., .METRE. ) );
#4 = CYLINDRICAL_SURFACE ( 'NONE', #16, 6.349999999999999600 ) ;
#5 = APPLICATION_PROTOCOL_DEFINITION ( 'international standard', 'config_control_design', 1994, #105 ) ;
#6 = PRODUCT_RELATED_PRODUCT_CATEGORY ( 'detail', '', ( #76 ) ) ;
#7 = PERSON_AND_ORGANIZATION_ROLE ( 'classification_officer' ) ;
#8 = ADVANCED_BREP_SHAPE_REPRESENTATION ( '110-0125E BK7 pl-cx 12.7 F250', ( #42, #62 ), #120 ) ;
#9 = EDGE_CURVE ( 'NONE', #89, #70, #61, .T. ) ;
#10 = PERSON_AND_ORGANIZATION ( #46, #152 ) ;
#11 = PERSON_AND_ORGANIZATION_ROLE ( 'design_supplier' ) ;
#12 = COORDINATED_UNIVERSAL_TIME_OFFSET ( 2, 0, .AHEAD. ) ;
#13 = LINE ( 'NONE', #159, #55 ) ;
#14 = DATE_AND_TIME ( #186, #60 ) ;
#15 = ADVANCED_FACE ( 'NONE', ( #97 ), #116, .T. ) ;
#16 = AXIS2_PLACEMENT_3D ( 'NONE', #198, #112, #71 ) ;
#17 = DESIGN_CONTEXT ( 'detailed design', #105, 'design' ) ;
#18 =( BOUNDED_SURFACE ( )  B_SPLINE_SURFACE ( 3, 3, ( 
 ( #181, #182, #145, #135 ),
 ( #22, #99, #214, #88 ),
 ( #185, #114, #44, #41 ),
 ( #19, #85, #101, #20 ) ),
 .UNSPECIFIED., .F., .F., .F. ) 
 B_SPLINE_SURFACE_WITH_KNOTS ( ( 4, 4 ),
 ( 4, 4 ),
 ( 0.0000000000000000000, 1.000000000000000000 ),
 ( 0.0000000000000000000, 1.000000000000000000 ),
 .UNSPECIFIED. ) 
 GEOMETRIC_REPRESENTATION_ITEM ( )  RATIONAL_B_SPLINE_SURFACE ( (
 ( 1.000000000000000000, 0.9997963022154897600, 0.9997963022154897600, 1.000000000000000000),
 ( 0.9991812229570113900, 0.9989776919555708500, 0.9989776919555708500, 0.9991812229570113900),
 ( 0.9991812229570113900, 0.9989776919555708500, 0.9989776919555708500, 0.9991812229570113900),
 ( 1.000000000000000000, 0.9997963022154897600, 0.9997963022154897600, 1.000000000000000000) ) ) 
 REPRESENTATION_ITEM ( '' )  SURFACE ( )  );
#19 = CARTESIAN_POINT ( 'NONE',  ( 2.143521899446925900E-016, 6.426137956652360600, 0.1592930737134290500 ) ) ;
#20 = CARTESIAN_POINT ( 'NONE',  ( 6.402124922843813500, 6.426137956652360600, 0.3175918162195777200 ) ) ;
#21 = DIRECTION ( 'NONE',  ( 0.0000000000000000000, -1.000000000000000000, -1.365923996832131600E-016 ) ) ;
#22 = CARTESIAN_POINT ( 'NONE',  ( 2.380081391371444200E-016, -2.143801280824249000, -0.05314120203405949700 ) ) ;
#23 = PERSON_AND_ORGANIZATION ( #46, #152 ) ;
#24 = EDGE_LOOP ( 'NONE', ( #158, #30 ) ) ;
#25 = APPROVAL_STATUS ( 'not_yet_approved' ) ;
#26 = PERSON_AND_ORGANIZATION_ROLE ( 'design_owner' ) ;
#27 = ORIENTED_EDGE ( 'NONE', *, *, #9, .F. ) ;
#28 = CC_DESIGN_APPROVAL ( #39, ( #183 ) ) ;
#29 = APPROVAL_DATE_TIME ( #151, #59 ) ;
#30 = ORIENTED_EDGE ( 'NONE', *, *, #92, .T. ) ;
#31 = ADVANCED_FACE ( 'NONE', ( #51 ), #212, .T. ) ;
#32 = CC_DESIGN_PERSON_AND_ORGANIZATION_ASSIGNMENT ( #95, #26, ( #76 ) ) ;
#33 = CLOSED_SHELL ( 'NONE', ( #174, #15, #153, #34, #31 ) ) ;
#34 = ADVANCED_FACE ( 'NONE', ( #37 ), #4, .T. ) ;
#35 = DIRECTION ( 'NONE',  ( 0.0000000000000000000, -1.000000000000000000, -1.152498372327111000E-016 ) ) ;
#36 = CARTESIAN_POINT ( 'NONE',  ( 2.498001805406600200E-016, -6.349999999999998800, 0.1555385205527202700 ) ) ;
#37 = FACE_OUTER_BOUND ( 'NONE', #94, .T. ) ;
#38 = DIRECTION ( 'NONE',  ( 0.0000000000000000000, -1.000000000000000000, -1.152498372327111000E-016 ) ) ;
#39 = APPROVAL ( #45, 'UNSPECIFIED' ) ;
#40 = CARTESIAN_POINT ( 'NONE',  ( -1.421085471520200100E-014, -1.421085471520200100E-014, 129.6999999999999900 ) ) ;
#41 = CARTESIAN_POINT ( 'NONE',  ( 6.412623790755684900, 2.143801280824260100, 0.1054171351548247300 ) ) ;
#42 = MANIFOLD_SOLID_BREP ( 'Imported1', #33 ) ;
#43 = AXIS2_PLACEMENT_3D ( 'NONE', #155, #56, #35 ) ;
#44 = CARTESIAN_POINT ( 'NONE',  ( 4.276606980786420200, 2.143801280824260100, -0.0002776547836416519600 ) ) ;
#45 = APPROVAL_STATUS ( 'not_yet_approved' ) ;
#46 = PERSON ( 'UNSPECIFIED', 'UNSPECIFIED', 'UNSPECIFIED', ('UNSPECIFIED'), ('UNSPECIFIED'), ('UNSPECIFIED') ) ;
#47 = EDGE_LOOP ( 'NONE', ( #53, #154 ) ) ;
#48 = APPROVAL_ROLE ( '' ) ;
#49 = MECHANICAL_CONTEXT ( 'NONE', #75, 'mechanical' ) ;
#50 = APPROVAL_DATE_TIME ( #14, #191 ) ;
#51 = FACE_OUTER_BOUND ( 'NONE', #119, .T. ) ;
#52 = DATE_AND_TIME ( #121, #192 ) ;
#53 = ORIENTED_EDGE ( 'NONE', *, *, #9, .T. ) ;
#54 = DATE_AND_TIME ( #169, #166 ) ;
#55 = VECTOR ( 'NONE', #179, 1000.000000000000000 ) ;
#56 = DIRECTION ( 'NONE',  ( -2.251959715999120100E-032, -1.170931333730930100E-016, 1.000000000000000000 ) ) ;
#57 = DIRECTION ( 'NONE',  ( 0.0000000000000000000, 0.0000000000000000000, 1.000000000000000000 ) ) ;
#58 = CARTESIAN_POINT ( 'NONE',  ( -4.269605239647866300, 6.426137956652360600, 0.2120700717730493700 ) ) ;
#59 = APPROVAL ( #190, 'UNSPECIFIED' ) ;
#60 = LOCAL_TIME ( 8, 29, 14.00000000000000000, #91 ) ;
#61 = CIRCLE ( 'NONE', #210, 6.349999999999999600 ) ;
#62 = AXIS2_PLACEMENT_3D ( 'NONE', #148, #118, #103 ) ;
#63 = DATE_TIME_ROLE ( 'creation_date' ) ;
#64 = ORIENTED_EDGE ( 'NONE', *, *, #204, .T. ) ;
#65 = PERSON_AND_ORGANIZATION ( #46, #152 ) ;
#66 = CC_DESIGN_APPROVAL ( #191, ( #173 ) ) ;
#67 = APPROVAL_PERSON_ORGANIZATION ( #10, #191, #167 ) ;
#68 = EDGE_LOOP ( 'NONE', ( #27, #102, #64, #178 ) ) ;
#69 = CARTESIAN_POINT ( 'NONE',  ( 1.027450897999229200E-015, 6.350000000000000500, 0.1555385205527217400 ) ) ;
#70 = VERTEX_POINT ( 'NONE', #36 ) ;
#71 = DIRECTION ( 'NONE',  ( 0.0000000000000000000, -1.000000000000000000, -1.152498372327111000E-016 ) ) ;
#72 = CARTESIAN_POINT ( 'NONE',  ( -7.459310946700270500E-014, 6.426137956652360600, 0.1592930737134223000 ) ) ;
#73 = LOCAL_TIME ( 8, 29, 14.00000000000000000, #78 ) ;
#74 = CARTESIAN_POINT ( 'NONE',  ( 2.498001805406599800E-016, 8.881784197001242500E-016, 3.000000000000000000 ) ) ;
#75 = APPLICATION_CONTEXT ( 'configuration controlled 3d designs of mechanical parts and assemblies' ) ;
#76 = PRODUCT ( '110-0125E BK7 pl-cx 12.7 F250', '110-0125E BK7 pl-cx 12.7 F250', '', ( #49 ) ) ;
#77 = CC_DESIGN_PERSON_AND_ORGANIZATION_ASSIGNMENT ( #65, #104, ( #173 ) ) ;
#78 = COORDINATED_UNIVERSAL_TIME_OFFSET ( 2, 0, .AHEAD. ) ;
#79 = PERSON_AND_ORGANIZATION ( #46, #152 ) ;
#80 = VECTOR ( 'NONE', #200, 1000.000000000000000 ) ;
#81 = CIRCLE ( 'NONE', #171, 129.6999999999999900 ) ;
#82 = CARTESIAN_POINT ( 'NONE',  ( -2.135128810580239300, -6.426137956652350000, 0.1592930737134233300 ) ) ;
#83 = CC_DESIGN_PERSON_AND_ORGANIZATION_ASSIGNMENT ( #23, #11, ( #173 ) ) ;
#84 = PERSON_AND_ORGANIZATION ( #46, #152 ) ;
#85 = CARTESIAN_POINT ( 'NONE',  ( 2.135128810580167800, 6.426137956652360600, 0.1592930737134293200 ) ) ;
#86 = ORIENTED_EDGE ( 'NONE', *, *, #206, .F. ) ;
#87 = DIRECTION ( 'NONE',  ( 0.0000000000000000000, -1.000000000000000000, -1.365923996832131600E-016 ) ) ;
#88 = CARTESIAN_POINT ( 'NONE',  ( 6.412623790755684900, -2.143801280824249000, 0.1054171351548259700 ) ) ;
#89 = VERTEX_POINT ( 'NONE', #69 ) ;
#90 = SECURITY_CLASSIFICATION_LEVEL ( 'unclassified' ) ;
#91 = COORDINATED_UNIVERSAL_TIME_OFFSET ( 2, 0, .AHEAD. ) ;
#92 = EDGE_CURVE ( 'NONE', #70, #89, #164, .T. ) ;
#93 = CALENDAR_DATE ( 2018, 21, 12 ) ;
#94 = EDGE_LOOP ( 'NONE', ( #86, #202, #149, #143 ) ) ;
#95 = PERSON_AND_ORGANIZATION ( #46, #152 ) ;
#96 = CARTESIAN_POINT ( 'NONE',  ( 0.0000000000000000000, 13.15799999999999900, 3.000000000000000000 ) ) ;
#97 = FACE_OUTER_BOUND ( 'NONE', #68, .T. ) ;
#98 = CARTESIAN_POINT ( 'NONE',  ( -7.459310946700270500E-014, -6.426137956652350000, 0.1592930737134223000 ) ) ;
#99 = CARTESIAN_POINT ( 'NONE',  ( 2.138630216070886500, -2.143801280824249500, -0.05314120203405926800 ) ) ;
#100 = CARTESIAN_POINT ( 'NONE',  ( -6.412623790755750600, -2.143801280824249000, 0.1054171351548184200 ) ) ;
#101 = CARTESIAN_POINT ( 'NONE',  ( 4.269605239647796100, 6.426137956652360600, 0.2120700717730574500 ) ) ;
#102 = ORIENTED_EDGE ( 'NONE', *, *, #206, .T. ) ;
#103 = DIRECTION ( 'NONE',  ( 1.000000000000000000, 0.0000000000000000000, 0.0000000000000000000 ) ) ;
#104 = PERSON_AND_ORGANIZATION_ROLE ( 'creator' ) ;
#105 = APPLICATION_CONTEXT ( 'configuration controlled 3d designs of mechanical parts and assemblies' ) ;
#106 = CC_DESIGN_PERSON_AND_ORGANIZATION_ASSIGNMENT ( #79, #7, ( #183 ) ) ;
#107 = ORIENTED_EDGE ( 'NONE', *, *, #204, .F. ) ;
#108 = CARTESIAN_POINT ( 'NONE',  ( -6.402124922843880100, -6.426137956652350000, 0.3175918162195701100 ) ) ;
#109 = APPROVAL_PERSON_ORGANIZATION ( #84, #59, #205 ) ;
#110 = CARTESIAN_POINT ( 'NONE',  ( 2.498001805406599800E-016, -6.349999999999998800, 2.999999999999999100 ) ) ;
#111 = DIRECTION ( 'NONE',  ( 2.251959715999120100E-032, 1.170931333730930100E-016, -1.000000000000000000 ) ) ;
#112 = DIRECTION ( 'NONE',  ( -2.251959715999120100E-032, -1.170931333730930100E-016, 1.000000000000000000 ) ) ;
#113 = FACE_OUTER_BOUND ( 'NONE', #47, .T. ) ;
#114 = CARTESIAN_POINT ( 'NONE',  ( 2.138630216070886500, 2.143801280824260100, -0.05314120203406051000 ) ) ;
#115 = COORDINATED_UNIVERSAL_TIME_OFFSET ( 2, 0, .AHEAD. ) ;
#116 = CYLINDRICAL_SURFACE ( 'NONE', #43, 6.349999999999999600 ) ;
#117 =( NAMED_UNIT ( * ) SI_UNIT ( $, .STERADIAN. ) SOLID_ANGLE_UNIT ( ) );
#118 = DIRECTION ( 'NONE',  ( 0.0000000000000000000, 0.0000000000000000000, 1.000000000000000000 ) ) ;
#119 = EDGE_LOOP ( 'NONE', ( #168, #107 ) ) ;
#120 =( GEOMETRIC_REPRESENTATION_CONTEXT ( 3 ) GLOBAL_UNCERTAINTY_ASSIGNED_CONTEXT ( ( #140 ) ) GLOBAL_UNIT_ASSIGNED_CONTEXT ( ( #3, #165, #117 ) ) REPRESENTATION_CONTEXT ( 'NONE', 'WORKASPACE' ) );
#121 = CALENDAR_DATE ( 2018, 21, 12 ) ;
#122 = CIRCLE ( 'NONE', #195, 6.349999999999999600 ) ;
#123 = PRODUCT_DEFINITION ( 'UNKNOWN', '', #173, #17 ) ;
#124 = APPROVAL_PERSON_ORGANIZATION ( #207, #39, #48 ) ;
#125 = PRODUCT_DEFINITION_SHAPE ( 'NONE', 'NONE',  #123 ) ;
#126 = CARTESIAN_POINT ( 'NONE',  ( -4.269605239647866300, -6.426137956652350000, 0.2120700717730493700 ) ) ;
#127 = CARTESIAN_POINT ( 'NONE',  ( 2.498001805406599800E-016, 8.881784197001242500E-016, 3.000000000000000000 ) ) ;
#128 = DIRECTION ( 'NONE',  ( 0.0000000000000000000, -1.000000000000000000, -1.152498372327111000E-016 ) ) ;
#129 = PERSON_AND_ORGANIZATION ( #46, #152 ) ;
#130 = AXIS2_PLACEMENT_3D ( 'NONE', #96, #57, #211 ) ;
#131 = DIRECTION ( 'NONE',  ( 2.251959715999120100E-032, 1.170931333730930100E-016, -1.000000000000000000 ) ) ;
#132 = EDGE_CURVE ( 'NONE', #70, #138, #13, .T. ) ;
#133 = DIRECTION ( 'NONE',  ( 1.000000000000000000, 1.014630051716460000E-031, -2.264349047295540000E-016 ) ) ;
#134 = CALENDAR_DATE ( 2018, 21, 12 ) ;
#135 = CARTESIAN_POINT ( 'NONE',  ( 6.402124922843813500, -6.426137956652350000, 0.3175918162195777200 ) ) ;
#136 = CARTESIAN_POINT ( 'NONE',  ( -7.459310946700273000E-014, 2.143801280824260100, -0.05314120203406754600 ) ) ;
#137 = DIRECTION ( 'NONE',  ( 0.0000000000000000000, -1.000000000000000000, -4.279965399480172100E-016 ) ) ;
#138 = VERTEX_POINT ( 'NONE', #110 ) ;
#139 = DATE_TIME_ROLE ( 'classification_date' ) ;
#140 = UNCERTAINTY_MEASURE_WITH_UNIT (LENGTH_MEASURE( 1.000000000000000100E-005 ), #3, 'distance_accuracy_value', 'NONE');
#141 = EDGE_CURVE ( 'NONE', #138, #193, #194, .T. ) ;
#142 = CC_DESIGN_APPROVAL ( #59, ( #123 ) ) ;
#143 = ORIENTED_EDGE ( 'NONE', *, *, #141, .T. ) ;
#144 = CARTESIAN_POINT ( 'NONE',  ( -2.138630216070956700, -2.143801280824249500, -0.05314120203406525600 ) ) ;
#145 = CARTESIAN_POINT ( 'NONE',  ( 4.269605239647796100, -6.426137956652350000, 0.2120700717730574500 ) ) ;
#146 = AXIS2_PLACEMENT_3D ( 'NONE', #127, #156, #21 ) ;
#147 = CARTESIAN_POINT ( 'NONE',  ( -7.459310946700273000E-014, -2.143801280824249000, -0.05314120203406624100 ) ) ;
#148 = CARTESIAN_POINT ( 'NONE',  ( 0.0000000000000000000, 0.0000000000000000000, 0.0000000000000000000 ) ) ;
#149 = ORIENTED_EDGE ( 'NONE', *, *, #132, .T. ) ;
#150 = CC_DESIGN_PERSON_AND_ORGANIZATION_ASSIGNMENT ( #129, #188, ( #123 ) ) ;
#151 = DATE_AND_TIME ( #93, #180 ) ;
#152 = ORGANIZATION ( 'UNSPECIFIED', 'UNSPECIFIED', '' ) ;
#153 = ADVANCED_FACE ( 'NONE', ( #172 ), #197, .T. ) ;
#154 = ORIENTED_EDGE ( 'NONE', *, *, #157, .T. ) ;
#155 = CARTESIAN_POINT ( 'NONE',  ( 2.498001805406600200E-016, 1.221245327087670000E-015, 0.1555385205527209900 ) ) ;
#156 = DIRECTION ( 'NONE',  ( 2.251959715999120100E-032, 1.170931333730930100E-016, -1.000000000000000000 ) ) ;
#157 = EDGE_CURVE ( 'NONE', #70, #89, #81, .T. ) ;
#158 = ORIENTED_EDGE ( 'NONE', *, *, #157, .F. ) ;
#159 = CARTESIAN_POINT ( 'NONE',  ( 2.498001805406600200E-016, -6.349999999999998800, 0.1555385205527202700 ) ) ;
#160 = CC_DESIGN_DATE_AND_TIME_ASSIGNMENT ( #196, #63, ( #123 ) ) ;
#161 = CARTESIAN_POINT ( 'NONE',  ( -2.135128810580239300, 6.426137956652360600, 0.1592930737134233300 ) ) ;
#162 = CARTESIAN_POINT ( 'NONE',  ( -2.138630216070956700, 2.143801280824260100, -0.05314120203406655400 ) ) ;
#163 = COORDINATED_UNIVERSAL_TIME_OFFSET ( 2, 0, .AHEAD. ) ;
#164 = CIRCLE ( 'NONE', #1, 6.349999999999999600 ) ;
#165 =( NAMED_UNIT ( * ) PLANE_ANGLE_UNIT ( ) SI_UNIT ( $, .RADIAN. ) );
#166 = LOCAL_TIME ( 8, 29, 14.00000000000000000, #163 ) ;
#167 = APPROVAL_ROLE ( '' ) ;
#168 = ORIENTED_EDGE ( 'NONE', *, *, #141, .F. ) ;
#169 = CALENDAR_DATE ( 2018, 21, 12 ) ;
#170 = SHAPE_DEFINITION_REPRESENTATION ( #125, #8 ) ;
#171 = AXIS2_PLACEMENT_3D ( 'NONE', #40, #133, #137 ) ;
#172 = FACE_OUTER_BOUND ( 'NONE', #24, .T. ) ;
#173 = PRODUCT_DEFINITION_FORMATION_WITH_SPECIFIED_SOURCE ( 'ANY', '', #76, .NOT_KNOWN. ) ;
#174 = ADVANCED_FACE ( 'NONE', ( #113 ), #18, .T. ) ;
#175 = CC_DESIGN_SECURITY_CLASSIFICATION ( #183, ( #173 ) ) ;
#176 = CARTESIAN_POINT ( 'NONE',  ( 2.498001805406600200E-016, 1.221245327087670000E-015, 0.1555385205527209900 ) ) ;
#177 = APPROVAL_DATE_TIME ( #52, #39 ) ;
#178 = ORIENTED_EDGE ( 'NONE', *, *, #132, .F. ) ;
#179 = DIRECTION ( 'NONE',  ( -2.251959715999120100E-032, -1.170931333730930100E-016, 1.000000000000000000 ) ) ;
#180 = LOCAL_TIME ( 8, 29, 14.00000000000000000, #115 ) ;
#181 = CARTESIAN_POINT ( 'NONE',  ( 2.143521899446925900E-016, -6.426137956652350000, 0.1592930737134290500 ) ) ;
#182 = CARTESIAN_POINT ( 'NONE',  ( 2.135128810580167800, -6.426137956652350000, 0.1592930737134293200 ) ) ;
#183 = SECURITY_CLASSIFICATION ( '', '', #90 ) ;
#184 = CARTESIAN_POINT ( 'NONE',  ( 1.027450897999229200E-015, 6.350000000000000500, 0.1555385205527217400 ) ) ;
#185 = CARTESIAN_POINT ( 'NONE',  ( 2.380081391371441700E-016, 2.143801280824260100, -0.05314120203406075300 ) ) ;
#186 = CALENDAR_DATE ( 2018, 21, 12 ) ;
#187 = DIRECTION ( 'NONE',  ( 2.251959715999120100E-032, 1.170931333730930100E-016, -1.000000000000000000 ) ) ;
#188 = PERSON_AND_ORGANIZATION_ROLE ( 'creator' ) ;
#189 = APPLICATION_PROTOCOL_DEFINITION ( 'international standard', 'config_control_design', 1994, #75 ) ;
#190 = APPROVAL_STATUS ( 'not_yet_approved' ) ;
#191 = APPROVAL ( #25, 'UNSPECIFIED' ) ;
#192 = LOCAL_TIME ( 8, 29, 14.00000000000000000, #12 ) ;
#193 = VERTEX_POINT ( 'NONE', #215 ) ;
#194 = CIRCLE ( 'NONE', #146, 6.349999999999999600 ) ;
#195 = AXIS2_PLACEMENT_3D ( 'NONE', #74, #187, #87 ) ;
#196 = DATE_AND_TIME ( #134, #73 ) ;
#198 = CARTESIAN_POINT ( 'NONE',  ( 2.498001805406600200E-016, 1.221245327087670000E-015, 0.1555385205527209900 ) ) ;
#197 =( BOUNDED_SURFACE ( )  B_SPLINE_SURFACE ( 3, 3, ( 
 ( #108, #126, #82, #98 ),
 ( #100, #213, #144, #147 ),
 ( #2, #203, #162, #136 ),
 ( #201, #58, #161, #72 ) ),
 .UNSPECIFIED., .F., .F., .T. ) 
 B_SPLINE_SURFACE_WITH_KNOTS ( ( 4, 4 ),
 ( 4, 4 ),
 ( 0.0000000000000000000, 1.000000000000000000 ),
 ( 0.0000000000000000000, 1.000000000000000000 ),
 .UNSPECIFIED. ) 
 GEOMETRIC_REPRESENTATION_ITEM ( )  RATIONAL_B_SPLINE_SURFACE ( (
 ( 1.000000000000000000, 0.9997963022154897600, 0.9997963022154897600, 1.000000000000000000),
 ( 0.9991812229570113900, 0.9989776919555708500, 0.9989776919555708500, 0.9991812229570113900),
 ( 0.9991812229570113900, 0.9989776919555708500, 0.9989776919555708500, 0.9991812229570113900),
 ( 1.000000000000000000, 0.9997963022154897600, 0.9997963022154897600, 1.000000000000000000) ) ) 
 REPRESENTATION_ITEM ( '' )  SURFACE ( )  );
#199 = CC_DESIGN_DATE_AND_TIME_ASSIGNMENT ( #54, #139, ( #183 ) ) ;
#200 = DIRECTION ( 'NONE',  ( -2.251959715999120100E-032, -1.170931333730930100E-016, 1.000000000000000000 ) ) ;
#201 = CARTESIAN_POINT ( 'NONE',  ( -6.402124922843880100, 6.426137956652360600, 0.3175918162195701100 ) ) ;
#202 = ORIENTED_EDGE ( 'NONE', *, *, #92, .F. ) ;
#203 = CARTESIAN_POINT ( 'NONE',  ( -4.276606980786490400, 2.143801280824260100, -0.0002776547836497428200 ) ) ;
#204 = EDGE_CURVE ( 'NONE', #193, #138, #122, .T. ) ;
#205 = APPROVAL_ROLE ( '' ) ;
#206 = EDGE_CURVE ( 'NONE', #89, #193, #208, .T. ) ;
#207 = PERSON_AND_ORGANIZATION ( #46, #152 ) ;
#208 = LINE ( 'NONE', #184, #80 ) ;
#209 = CARTESIAN_POINT ( 'NONE',  ( 2.498001805406600200E-016, 1.221245327087670000E-015, 0.1555385205527209900 ) ) ;
#210 = AXIS2_PLACEMENT_3D ( 'NONE', #209, #111, #128 ) ;
#211 = DIRECTION ( 'NONE',  ( 1.000000000000000000, 0.0000000000000000000, -0.0000000000000000000 ) ) ;
#212 = PLANE ( 'NONE',  #130 ) ;
#213 = CARTESIAN_POINT ( 'NONE',  ( -4.276606980786490400, -2.143801280824249500, -0.0002776547836484688200 ) ) ;
#214 = CARTESIAN_POINT ( 'NONE',  ( 4.276606980786420200, -2.143801280824249500, -0.0002776547836404051200 ) ) ;
#215 = CARTESIAN_POINT ( 'NONE',  ( 1.027450897999229200E-015, 6.350000000000000500, 3.000000000000000900 ) ) ;
ENDSEC;
END-ISO-10303-21;
