ISO-10303-21;
HEADER;
FILE_DESCRIPTION (( 'STEP AP203' ),
    '1' );
FILE_NAME ('110-0121E BK7 pl-cx 12.7 F150.STEP',
    '2018-12-21T06:29:44',
    ( '' ),
    ( '' ),
    'SwSTEP 2.0',
    'SolidWorks 2017',
    '' );
FILE_SCHEMA (( 'CONFIG_CONTROL_DESIGN' ));
ENDSEC;

DATA;
#1 = CARTESIAN_POINT ( 'NONE',  ( 4.282355978108389700, -2.146898409432960200, -0.0004979330057802656900 ) ) ;
#2 = DATE_AND_TIME ( #147, #115 ) ;
#3 = EDGE_CURVE ( 'NONE', #129, #30, #109, .T. ) ;
#4 = PERSON_AND_ORGANIZATION_ROLE ( 'creator' ) ;
#5 =( NAMED_UNIT ( * ) SI_UNIT ( $, .STERADIAN. ) SOLID_ANGLE_UNIT ( ) );
#6 = ADVANCED_FACE ( 'NONE', ( #215 ), #23, .T. ) ;
#7 = COORDINATED_UNIVERSAL_TIME_OFFSET ( 2, 0, .AHEAD. ) ;
#8 = CALENDAR_DATE ( 2018, 21, 12 ) ;
#9 = CIRCLE ( 'NONE', #191, 6.349999999999999600 ) ;
#10 = DIRECTION ( 'NONE',  ( -2.337423781379539900E-032, -1.215369318722850000E-016, 1.000000000000000000 ) ) ;
#11 = CARTESIAN_POINT ( 'NONE',  ( 0.0000000000000000000, 0.0000000000000000000, 0.0000000000000000000 ) ) ;
#12 = ORIENTED_EDGE ( 'NONE', *, *, #133, .F. ) ;
#13 = CARTESIAN_POINT ( 'NONE',  ( -2.131628207280299900E-014, -2.131628207280299900E-014, 77.81000000000000200 ) ) ;
#14 = CARTESIAN_POINT ( 'NONE',  ( 2.498001805406600200E-016, -6.349999999999998800, 0.2595415874283822900 ) ) ;
#15 = CARTESIAN_POINT ( 'NONE',  ( 2.132337321620045400, 6.426027318755814100, 0.2658043893767342800 ) ) ;
#16 = ADVANCED_FACE ( 'NONE', ( #160 ), #121, .T. ) ;
#17 = APPROVAL ( #172, 'UNSPECIFIED' ) ;
#18 = APPROVAL_STATUS ( 'not_yet_approved' ) ;
#19 = EDGE_LOOP ( 'NONE', ( #112, #92 ) ) ;
#20 = ORIENTED_EDGE ( 'NONE', *, *, #42, .T. ) ;
#21 = COORDINATED_UNIVERSAL_TIME_OFFSET ( 2, 0, .AHEAD. ) ;
#22 = ORIENTED_EDGE ( 'NONE', *, *, #183, .T. ) ;
#23 = CYLINDRICAL_SURFACE ( 'NONE', #127, 6.349999999999999600 ) ;
#24 = DIRECTION ( 'NONE',  ( 0.0000000000000000000, 0.0000000000000000000, 1.000000000000000000 ) ) ;
#25 = VECTOR ( 'NONE', #29, 1000.000000000000000 ) ;
#26 = DIRECTION ( 'NONE',  ( 0.0000000000000000000, -1.000000000000000000, -1.195183497228115300E-016 ) ) ;
#27 = CARTESIAN_POINT ( 'NONE',  ( -2.132337321620080100, 6.426027318755814100, 0.2658043893767353900 ) ) ;
#28 = CARTESIAN_POINT ( 'NONE',  ( 4.282355978108390600, 2.146898409432962800, -0.0004979330057967455600 ) ) ;
#29 = DIRECTION ( 'NONE',  ( -2.337423781379539900E-032, -1.215369318722850000E-016, 1.000000000000000000 ) ) ;
#30 = VERTEX_POINT ( 'NONE', #197 ) ;
#31 = DIRECTION ( 'NONE',  ( 0.0000000000000000000, -1.000000000000000000, -1.195183497228115300E-016 ) ) ;
#32 = CARTESIAN_POINT ( 'NONE',  ( 2.498001805406600200E-016, 1.221245327087670000E-015, 0.2595415874283830100 ) ) ;
#33 = LOCAL_TIME ( 8, 29, 44.00000000000000000, #7 ) ;
#34 = AXIS2_PLACEMENT_3D ( 'NONE', #13, #65, #187 ) ;
#35 = APPROVAL_ROLE ( '' ) ;
#36 = DIRECTION ( 'NONE',  ( 0.0000000000000000000, 0.0000000000000000000, 1.000000000000000000 ) ) ;
#37 = ORIENTED_EDGE ( 'NONE', *, *, #146, .F. ) ;
#38 = CARTESIAN_POINT ( 'NONE',  ( 2.132337321620045000, -6.426027318755810600, 0.2658043893767481600 ) ) ;
#39 = APPROVAL_PERSON_ORGANIZATION ( #45, #102, #35 ) ;
#40 = CARTESIAN_POINT ( 'NONE',  ( 2.498001805406599800E-016, 8.881784197001231600E-016, 3.000000000000000000 ) ) ;
#41 = CARTESIAN_POINT ( 'NONE',  ( 2.498001805406600200E-016, -6.349999999999998800, 0.2595415874283822900 ) ) ;
#42 = EDGE_CURVE ( 'NONE', #30, #129, #195, .T. ) ;
#43 = CARTESIAN_POINT ( 'NONE',  ( 6.417163776551841000, -2.146898409432961100, 0.1759634734468670200 ) ) ;
#44 = EDGE_CURVE ( 'NONE', #211, #152, #49, .T. ) ;
#45 = PERSON_AND_ORGANIZATION ( #214, #149 ) ;
#46 = CC_DESIGN_PERSON_AND_ORGANIZATION_ASSIGNMENT ( #138, #4, ( #71 ) ) ;
#47 = COORDINATED_UNIVERSAL_TIME_OFFSET ( 2, 0, .AHEAD. ) ;
#48 = CARTESIAN_POINT ( 'NONE',  ( 1.027450897999229200E-015, 6.350000000000000500, 0.2595415874283837900 ) ) ;
#49 = CIRCLE ( 'NONE', #91, 6.349999999999999600 ) ;
#50 = DESIGN_CONTEXT ( 'detailed design', #206, 'design' ) ;
#51 = DATE_AND_TIME ( #97, #62 ) ;
#52 = CARTESIAN_POINT ( 'NONE',  ( 4.262861993456288800, -6.426027318755810600, 0.3537081769562007700 ) ) ;
#53 = CARTESIAN_POINT ( 'NONE',  ( 2.498001805406599800E-016, 8.881784197001231600E-016, 3.000000000000000000 ) ) ;
#54 = CARTESIAN_POINT ( 'NONE',  ( -6.387951797723014900, -6.426027318755811500, 0.5293663022321593000 ) ) ;
#55 = SECURITY_CLASSIFICATION ( '', '', #171 ) ;
#56 = CARTESIAN_POINT ( 'NONE',  ( -3.989863994746656900E-014, 2.146898409432963700, -0.08880370288928914100 ) ) ;
#57 = ORIENTED_EDGE ( 'NONE', *, *, #44, .F. ) ;
#58 = CARTESIAN_POINT ( 'NONE',  ( -6.387951797723015800, 6.426027318755815000, 0.5293663022321454200 ) ) ;
#59 = CARTESIAN_POINT ( 'NONE',  ( 2.984324280398787600E-016, 2.146898409432963700, -0.08880370288929030600 ) ) ;
#60 = AXIS2_PLACEMENT_3D ( 'NONE', #53, #199, #103 ) ;
#61 = CC_DESIGN_PERSON_AND_ORGANIZATION_ASSIGNMENT ( #210, #82, ( #125 ) ) ;
#62 = LOCAL_TIME ( 8, 29, 44.00000000000000000, #21 ) ;
#63 = DATE_TIME_ROLE ( 'creation_date' ) ;
#64 = FACE_OUTER_BOUND ( 'NONE', #19, .T. ) ;
#65 = DIRECTION ( 'NONE',  ( 1.000000000000000000, 0.0000000000000000000, 0.0000000000000000000 ) ) ;
#66 = CC_DESIGN_DATE_AND_TIME_ASSIGNMENT ( #2, #151, ( #55 ) ) ;
#67 = EDGE_LOOP ( 'NONE', ( #213, #37, #104, #20 ) ) ;
#68 = ORIENTED_EDGE ( 'NONE', *, *, #3, .F. ) ;
#69 = AXIS2_PLACEMENT_3D ( 'NONE', #124, #24, #157 ) ;
#70 = EDGE_LOOP ( 'NONE', ( #101, #22 ) ) ;
#71 = PRODUCT_DEFINITION ( 'UNKNOWN', '', #84, #50 ) ;
#72 = DIRECTION ( 'NONE',  ( -2.337423781379539900E-032, -1.215369318722850000E-016, 1.000000000000000000 ) ) ;
#73 = PERSON_AND_ORGANIZATION ( #214, #149 ) ;
#74 = DIRECTION ( 'NONE',  ( 0.0000000000000000000, -1.000000000000000000, -1.195183497228115300E-016 ) ) ;
#75 = DIRECTION ( 'NONE',  ( 0.0000000000000000000, -1.000000000000000000, -1.365923996832131600E-016 ) ) ;
#76 = DIRECTION ( 'NONE',  ( 2.337423781379539900E-032, 1.215369318722850000E-016, -1.000000000000000000 ) ) ;
#77 = CARTESIAN_POINT ( 'NONE',  ( 6.417163776551842800, 2.146898409432963700, 0.1759634734468505400 ) ) ;
#78 = CARTESIAN_POINT ( 'NONE',  ( 6.387951797722991800, 6.426027318755815000, 0.5293663022321499800 ) ) ;
#79 = ADVANCED_FACE ( 'NONE', ( #196 ), #89, .T. ) ;
#80 = APPROVAL_PERSON_ORGANIZATION ( #116, #17, #132 ) ;
#81 = PERSON_AND_ORGANIZATION_ROLE ( 'classification_officer' ) ;
#82 = PERSON_AND_ORGANIZATION_ROLE ( 'design_owner' ) ;
#83 = APPLICATION_PROTOCOL_DEFINITION ( 'international standard', 'config_control_design', 1994, #169 ) ;
#84 = PRODUCT_DEFINITION_FORMATION_WITH_SPECIFIED_SOURCE ( 'ANY', '', #125, .NOT_KNOWN. ) ;
#85 =( BOUNDED_SURFACE ( )  B_SPLINE_SURFACE ( 3, 3, ( 
 ( #54, #161, #114, #113 ),
 ( #130, #181, #200, #142 ),
 ( #165, #141, #164, #56 ),
 ( #58, #184, #27, #204 ) ),
 .UNSPECIFIED., .F., .F., .F. ) 
 B_SPLINE_SURFACE_WITH_KNOTS ( ( 4, 4 ),
 ( 4, 4 ),
 ( 0.0000000000000000000, 1.000000000000000000 ),
 ( 0.0000000000000000000, 1.000000000000000000 ),
 .UNSPECIFIED. ) 
 GEOMETRIC_REPRESENTATION_ITEM ( )  RATIONAL_B_SPLINE_SURFACE ( (
 ( 1.000000000000000000, 0.9994332823531491000, 0.9994332823531491000, 1.000000000000000000),
 ( 0.9977226201484237200, 0.9971571931329232800, 0.9971571931329232800, 0.9977226201484237200),
 ( 0.9977226201484237200, 0.9971571931329232800, 0.9971571931329232800, 0.9977226201484237200),
 ( 1.000000000000000000, 0.9994332823531491000, 0.9994332823531491000, 1.000000000000000000) ) ) 
 REPRESENTATION_ITEM ( '' )  SURFACE ( )  );
#86 = CC_DESIGN_APPROVAL ( #102, ( #84 ) ) ;
#87 = DIRECTION ( 'NONE',  ( 0.0000000000000000000, -1.000000000000000000, -1.195183497228115300E-016 ) ) ;
#88 = PERSON_AND_ORGANIZATION ( #214, #149 ) ;
#89 = PLANE ( 'NONE',  #69 ) ;
#90 = PRODUCT_RELATED_PRODUCT_CATEGORY ( 'detail', '', ( #125 ) ) ;
#91 = AXIS2_PLACEMENT_3D ( 'NONE', #107, #126, #26 ) ;
#92 = ORIENTED_EDGE ( 'NONE', *, *, #146, .T. ) ;
#93 = CARTESIAN_POINT ( 'NONE',  ( 2.142088458552127600, -2.146898409432960200, -0.08880370288927323700 ) ) ;
#94 = CC_DESIGN_PERSON_AND_ORGANIZATION_ASSIGNMENT ( #166, #81, ( #55 ) ) ;
#95 = APPLICATION_PROTOCOL_DEFINITION ( 'international standard', 'config_control_design', 1994, #206 ) ;
#96 = AXIS2_PLACEMENT_3D ( 'NONE', #40, #76, #75 ) ;
#97 = CALENDAR_DATE ( 2018, 21, 12 ) ;
#98 = APPROVAL_STATUS ( 'not_yet_approved' ) ;
#99 = LOCAL_TIME ( 8, 29, 44.00000000000000000, #47 ) ;
#100 = UNCERTAINTY_MEASURE_WITH_UNIT (LENGTH_MEASURE( 1.000000000000000100E-005 ), #182, 'distance_accuracy_value', 'NONE');
#101 = ORIENTED_EDGE ( 'NONE', *, *, #44, .T. ) ;
#102 = APPROVAL ( #18, 'UNSPECIFIED' ) ;
#103 = DIRECTION ( 'NONE',  ( 0.0000000000000000000, -1.000000000000000000, -1.365923996832131600E-016 ) ) ;
#104 = ORIENTED_EDGE ( 'NONE', *, *, #133, .T. ) ;
#105 = CC_DESIGN_APPROVAL ( #111, ( #55 ) ) ;
#106 = APPROVAL_DATE_TIME ( #153, #17 ) ;
#107 = CARTESIAN_POINT ( 'NONE',  ( 2.498001805406600200E-016, 1.221245327087670000E-015, 0.2595415874283830100 ) ) ;
#108 = ADVANCED_BREP_SHAPE_REPRESENTATION ( '110-0121E BK7 pl-cx 12.7 F150', ( #186, #119 ), #209 ) ;
#109 = CIRCLE ( 'NONE', #60, 6.349999999999999600 ) ;
#110 = CARTESIAN_POINT ( 'NONE',  ( 1.027450897999229200E-015, 6.350000000000000500, 0.2595415874283837900 ) ) ;
#111 = APPROVAL ( #98, 'UNSPECIFIED' ) ;
#112 = ORIENTED_EDGE ( 'NONE', *, *, #183, .F. ) ;
#113 = CARTESIAN_POINT ( 'NONE',  ( -4.076600168545496700E-014, -6.426027318755811500, 0.2658043893767487200 ) ) ;
#114 = CARTESIAN_POINT ( 'NONE',  ( -2.132337321620080500, -6.426027318755810600, 0.2658043893767493300 ) ) ;
#115 = LOCAL_TIME ( 8, 29, 44.00000000000000000, #203 ) ;
#116 = PERSON_AND_ORGANIZATION ( #214, #149 ) ;
#117 = CC_DESIGN_DATE_AND_TIME_ASSIGNMENT ( #51, #63, ( #71 ) ) ;
#118 = PERSON_AND_ORGANIZATION ( #214, #149 ) ;
#119 = AXIS2_PLACEMENT_3D ( 'NONE', #11, #36, #190 ) ;
#120 = ORIENTED_EDGE ( 'NONE', *, *, #185, .T. ) ;
#121 = CYLINDRICAL_SURFACE ( 'NONE', #154, 6.349999999999999600 ) ;
#122 = APPROVAL_DATE_TIME ( #175, #111 ) ;
#123 = DATE_AND_TIME ( #178, #33 ) ;
#124 = CARTESIAN_POINT ( 'NONE',  ( 0.0000000000000000000, 13.15799999999999900, 3.000000000000000000 ) ) ;
#125 = PRODUCT ( '110-0121E BK7 pl-cx 12.7 F150', '110-0121E BK7 pl-cx 12.7 F150', '', ( #189 ) ) ;
#126 = DIRECTION ( 'NONE',  ( 2.337423781379539900E-032, 1.215369318722850000E-016, -1.000000000000000000 ) ) ;
#127 = AXIS2_PLACEMENT_3D ( 'NONE', #179, #72, #87 ) ;
#128 = CARTESIAN_POINT ( 'NONE',  ( 2.984324280398758500E-016, -2.146898409432961100, -0.08880370288927381900 ) ) ;
#129 = VERTEX_POINT ( 'NONE', #136 ) ;
#130 = CARTESIAN_POINT ( 'NONE',  ( -6.417163776551865900, -2.146898409432961100, 0.1759634734468623600 ) ) ;
#131 = PERSON_AND_ORGANIZATION_ROLE ( 'design_supplier' ) ;
#132 = APPROVAL_ROLE ( '' ) ;
#133 = EDGE_CURVE ( 'NONE', #152, #30, #174, .T. ) ;
#134 = CC_DESIGN_PERSON_AND_ORGANIZATION_ASSIGNMENT ( #73, #131, ( #84 ) ) ;
#135 = CC_DESIGN_PERSON_AND_ORGANIZATION_ASSIGNMENT ( #118, #188, ( #84 ) ) ;
#136 = CARTESIAN_POINT ( 'NONE',  ( 1.027450897999229200E-015, 6.350000000000000500, 3.000000000000000900 ) ) ;
#137 = SHAPE_DEFINITION_REPRESENTATION ( #163, #108 ) ;
#138 = PERSON_AND_ORGANIZATION ( #214, #149 ) ;
#139 = EDGE_LOOP ( 'NONE', ( #57, #120, #177, #12 ) ) ;
#140 = DIRECTION ( 'NONE',  ( 2.337423781379539900E-032, 1.215369318722850000E-016, -1.000000000000000000 ) ) ;
#141 = CARTESIAN_POINT ( 'NONE',  ( -4.282355978108419100, 2.146898409432962800, -0.0004979330058003505300 ) ) ;
#142 = CARTESIAN_POINT ( 'NONE',  ( -4.076600168545497300E-014, -2.146898409432961100, -0.08880370288927262600 ) ) ;
#143 = FACE_OUTER_BOUND ( 'NONE', #70, .T. ) ;
#144 = ADVANCED_FACE ( 'NONE', ( #143 ), #158, .T. ) ;
#145 = CARTESIAN_POINT ( 'NONE',  ( 4.262861993456290600, 6.426027318755814100, 0.3537081769561868400 ) ) ;
#146 = EDGE_CURVE ( 'NONE', #152, #211, #9, .T. ) ;
#147 = CALENDAR_DATE ( 2018, 21, 12 ) ;
#148 = CC_DESIGN_APPROVAL ( #17, ( #71 ) ) ;
#149 = ORGANIZATION ( 'UNSPECIFIED', 'UNSPECIFIED', '' ) ;
#150 = ORIENTED_EDGE ( 'NONE', *, *, #42, .F. ) ;
#151 = DATE_TIME_ROLE ( 'classification_date' ) ;
#152 = VERTEX_POINT ( 'NONE', #14 ) ;
#153 = DATE_AND_TIME ( #212, #205 ) ;
#154 = AXIS2_PLACEMENT_3D ( 'NONE', #198, #10, #74 ) ;
#155 = VECTOR ( 'NONE', #159, 1000.000000000000000 ) ;
#156 = CLOSED_SHELL ( 'NONE', ( #144, #16, #173, #6, #79 ) ) ;
#157 = DIRECTION ( 'NONE',  ( 1.000000000000000000, 0.0000000000000000000, -0.0000000000000000000 ) ) ;
#158 =( BOUNDED_SURFACE ( )  B_SPLINE_SURFACE ( 3, 3, ( 
 ( #180, #38, #52, #168 ),
 ( #128, #93, #1, #43 ),
 ( #59, #202, #28, #77 ),
 ( #162, #15, #145, #78 ) ),
 .UNSPECIFIED., .F., .F., .F. ) 
 B_SPLINE_SURFACE_WITH_KNOTS ( ( 4, 4 ),
 ( 4, 4 ),
 ( 0.0000000000000000000, 1.000000000000000000 ),
 ( 0.0000000000000000000, 1.000000000000000000 ),
 .UNSPECIFIED. ) 
 GEOMETRIC_REPRESENTATION_ITEM ( )  RATIONAL_B_SPLINE_SURFACE ( (
 ( 1.000000000000000000, 0.9994332823531491000, 0.9994332823531491000, 1.000000000000000000),
 ( 0.9977226201484237200, 0.9971571931329232800, 0.9971571931329232800, 0.9977226201484237200),
 ( 0.9977226201484237200, 0.9971571931329232800, 0.9971571931329232800, 0.9977226201484237200),
 ( 1.000000000000000000, 0.9994332823531491000, 0.9994332823531491000, 1.000000000000000000) ) ) 
 REPRESENTATION_ITEM ( '' )  SURFACE ( )  );
#159 = DIRECTION ( 'NONE',  ( -2.337423781379539900E-032, -1.215369318722850000E-016, 1.000000000000000000 ) ) ;
#160 = FACE_OUTER_BOUND ( 'NONE', #139, .T. ) ;
#161 = CARTESIAN_POINT ( 'NONE',  ( -4.262861993456318100, -6.426027318755810600, 0.3537081769561972200 ) ) ;
#162 = CARTESIAN_POINT ( 'NONE',  ( 2.000387132499514300E-016, 6.426027318755815000, 0.2658043893767336700 ) ) ;
#163 = PRODUCT_DEFINITION_SHAPE ( 'NONE', 'NONE',  #71 ) ;
#164 = CARTESIAN_POINT ( 'NONE',  ( -2.142088458552162200, 2.146898409432962800, -0.08880370288928861300 ) ) ;
#165 = CARTESIAN_POINT ( 'NONE',  ( -6.417163776551866800, 2.146898409432963700, 0.1759634734468459900 ) ) ;
#166 = PERSON_AND_ORGANIZATION ( #214, #149 ) ;
#167 = APPROVAL_DATE_TIME ( #123, #102 ) ;
#168 = CARTESIAN_POINT ( 'NONE',  ( 6.387951797722990000, -6.426027318755811500, 0.5293663022321638500 ) ) ;
#169 = APPLICATION_CONTEXT ( 'configuration controlled 3d designs of mechanical parts and assemblies' ) ;
#170 = EDGE_LOOP ( 'NONE', ( #150, #68 ) ) ;
#171 = SECURITY_CLASSIFICATION_LEVEL ( 'unclassified' ) ;
#172 = APPROVAL_STATUS ( 'not_yet_approved' ) ;
#173 = ADVANCED_FACE ( 'NONE', ( #64 ), #85, .T. ) ;
#174 = LINE ( 'NONE', #41, #155 ) ;
#175 = DATE_AND_TIME ( #8, #99 ) ;
#176 = CC_DESIGN_SECURITY_CLASSIFICATION ( #55, ( #84 ) ) ;
#177 = ORIENTED_EDGE ( 'NONE', *, *, #3, .T. ) ;
#178 = CALENDAR_DATE ( 2018, 21, 12 ) ;
#179 = CARTESIAN_POINT ( 'NONE',  ( 2.498001805406600200E-016, 1.221245327087670000E-015, 0.2595415874283830100 ) ) ;
#180 = CARTESIAN_POINT ( 'NONE',  ( 2.000387132499483500E-016, -6.426027318755811500, 0.2658043893767475500 ) ) ;
#181 = CARTESIAN_POINT ( 'NONE',  ( -4.282355978108419100, -2.146898409432960200, -0.0004979330057838977700 ) ) ;
#182 =( LENGTH_UNIT ( ) NAMED_UNIT ( * ) SI_UNIT ( .MILLI., .METRE. ) );
#183 = EDGE_CURVE ( 'NONE', #152, #211, #208, .T. ) ;
#184 = CARTESIAN_POINT ( 'NONE',  ( -4.262861993456319900, 6.426027318755814100, 0.3537081769561832800 ) ) ;
#185 = EDGE_CURVE ( 'NONE', #211, #129, #201, .T. ) ;
#186 = MANIFOLD_SOLID_BREP ( 'Imported1', #156 ) ;
#187 = DIRECTION ( 'NONE',  ( 0.0000000000000000000, -1.000000000000000000, -3.567096210722132400E-016 ) ) ;
#188 = PERSON_AND_ORGANIZATION_ROLE ( 'creator' ) ;
#189 = MECHANICAL_CONTEXT ( 'NONE', #169, 'mechanical' ) ;
#190 = DIRECTION ( 'NONE',  ( 1.000000000000000000, 0.0000000000000000000, 0.0000000000000000000 ) ) ;
#191 = AXIS2_PLACEMENT_3D ( 'NONE', #32, #140, #31 ) ;
#192 =( NAMED_UNIT ( * ) PLANE_ANGLE_UNIT ( ) SI_UNIT ( $, .RADIAN. ) );
#193 = APPROVAL_PERSON_ORGANIZATION ( #88, #111, #207 ) ;
#194 = COORDINATED_UNIVERSAL_TIME_OFFSET ( 2, 0, .AHEAD. ) ;
#195 = CIRCLE ( 'NONE', #96, 6.349999999999999600 ) ;
#196 = FACE_OUTER_BOUND ( 'NONE', #170, .T. ) ;
#197 = CARTESIAN_POINT ( 'NONE',  ( 2.498001805406599800E-016, -6.349999999999998800, 2.999999999999999100 ) ) ;
#198 = CARTESIAN_POINT ( 'NONE',  ( 2.498001805406600200E-016, 1.221245327087670000E-015, 0.2595415874283830100 ) ) ;
#199 = DIRECTION ( 'NONE',  ( 2.337423781379539900E-032, 1.215369318722850000E-016, -1.000000000000000000 ) ) ;
#200 = CARTESIAN_POINT ( 'NONE',  ( -2.142088458552162700, -2.146898409432960200, -0.08880370288927211300 ) ) ;
#201 = LINE ( 'NONE', #110, #25 ) ;
#202 = CARTESIAN_POINT ( 'NONE',  ( 2.142088458552128000, 2.146898409432962800, -0.08880370288928971000 ) ) ;
#203 = COORDINATED_UNIVERSAL_TIME_OFFSET ( 2, 0, .AHEAD. ) ;
#204 = CARTESIAN_POINT ( 'NONE',  ( -3.989863994746656300E-014, 6.426027318755815000, 0.2658043893767348400 ) ) ;
#205 = LOCAL_TIME ( 8, 29, 44.00000000000000000, #194 ) ;
#206 = APPLICATION_CONTEXT ( 'configuration controlled 3d designs of mechanical parts and assemblies' ) ;
#207 = APPROVAL_ROLE ( '' ) ;
#208 = CIRCLE ( 'NONE', #34, 77.81000000000000200 ) ;
#209 =( GEOMETRIC_REPRESENTATION_CONTEXT ( 3 ) GLOBAL_UNCERTAINTY_ASSIGNED_CONTEXT ( ( #100 ) ) GLOBAL_UNIT_ASSIGNED_CONTEXT ( ( #182, #192, #5 ) ) REPRESENTATION_CONTEXT ( 'NONE', 'WORKASPACE' ) );
#210 = PERSON_AND_ORGANIZATION ( #214, #149 ) ;
#211 = VERTEX_POINT ( 'NONE', #48 ) ;
#212 = CALENDAR_DATE ( 2018, 21, 12 ) ;
#213 = ORIENTED_EDGE ( 'NONE', *, *, #185, .F. ) ;
#214 = PERSON ( 'UNSPECIFIED', 'UNSPECIFIED', 'UNSPECIFIED', ('UNSPECIFIED'), ('UNSPECIFIED'), ('UNSPECIFIED') ) ;
#215 = FACE_OUTER_BOUND ( 'NONE', #67, .T. ) ;
ENDSEC;
END-ISO-10303-21;
