ISO-10303-21;
HEADER;
FILE_DESCRIPTION (( 'STEP AP203' ),
    '1' );
FILE_NAME ('110-0117E BK7 pl-cx 12.7 F100.STEP',
    '2018-12-21T06:29:59',
    ( '' ),
    ( '' ),
    'SwSTEP 2.0',
    'SolidWorks 2017',
    '' );
FILE_SCHEMA (( 'CONFIG_CONTROL_DESIGN' ));
ENDSEC;

DATA;
#1 = AXIS2_PLACEMENT_3D ( 'NONE', #16, #135, #105 ) ;
#2 = DIRECTION ( 'NONE',  ( -2.454403862353960100E-032, -1.276194404208249900E-016, 1.000000000000000000 ) ) ;
#3 =( NAMED_UNIT ( * ) PLANE_ANGLE_UNIT ( ) SI_UNIT ( $, .RADIAN. ) );
#4 = PERSON_AND_ORGANIZATION_ROLE ( 'creator' ) ;
#5 = CC_DESIGN_SECURITY_CLASSIFICATION ( #133, ( #76 ) ) ;
#6 = APPROVAL_DATE_TIME ( #40, #89 ) ;
#7 = AXIS2_PLACEMENT_3D ( 'NONE', #99, #82, #202 ) ;
#8 = CARTESIAN_POINT ( 'NONE',  ( 2.498001805406600200E-016, 1.221245327087670000E-015, 0.3901554003899510000 ) ) ;
#9 = ORIENTED_EDGE ( 'NONE', *, *, #110, .F. ) ;
#10 = ADVANCED_FACE ( 'NONE', ( #61 ), #44, .T. ) ;
#11 = DESIGN_CONTEXT ( 'detailed design', #186, 'design' ) ;
#12 = PRODUCT ( '110-0117E BK7 pl-cx 12.7 F100', '110-0117E BK7 pl-cx 12.7 F100', '', ( #29 ) ) ;
#13 = LINE ( 'NONE', #46, #34 ) ;
#14 = LOCAL_TIME ( 8, 29, 59.00000000000000000, #58 ) ;
#15 = DIRECTION ( 'NONE',  ( -2.454403862353960100E-032, -1.276194404208249900E-016, 1.000000000000000000 ) ) ;
#16 = CARTESIAN_POINT ( 'NONE',  ( 2.498001805406599800E-016, 8.881784197001235600E-016, 3.000000000000000000 ) ) ;
#17 = CARTESIAN_POINT ( 'NONE',  ( 2.498001805406599800E-016, -6.349999999999998800, 2.999999999999999100 ) ) ;
#18 = APPROVAL_STATUS ( 'not_yet_approved' ) ;
#19 = CARTESIAN_POINT ( 'NONE',  ( -2.148896639530614400, 2.152993280603952000, -0.1338752421295740800 ) ) ;
#20 = CARTESIAN_POINT ( 'NONE',  ( 2.148896639530595700, 2.152993280603951600, -0.1338752421295754700 ) ) ;
#21 = ORIENTED_EDGE ( 'NONE', *, *, #94, .F. ) ;
#22 = FACE_OUTER_BOUND ( 'NONE', #160, .T. ) ;
#23 = ORIENTED_EDGE ( 'NONE', *, *, #150, .F. ) ;
#24 = ORGANIZATION ( 'UNSPECIFIED', 'UNSPECIFIED', '' ) ;
#25 = PERSON_AND_ORGANIZATION ( #132, #24 ) ;
#26 = DIRECTION ( 'NONE',  ( 2.454403862353960100E-032, 1.276194404208249900E-016, -1.000000000000000000 ) ) ;
#27 = CLOSED_SHELL ( 'NONE', ( #109, #88, #10, #144, #177 ) ) ;
#28 = CC_DESIGN_PERSON_AND_ORGANIZATION_ASSIGNMENT ( #25, #48, ( #12 ) ) ;
#29 = MECHANICAL_CONTEXT ( 'NONE', #81, 'mechanical' ) ;
#30 = CARTESIAN_POINT ( 'NONE',  ( -6.426099281312358100, -2.152993280603957300, 0.2646874030813201100 ) ) ;
#31 = PERSON_AND_ORGANIZATION_ROLE ( 'classification_officer' ) ;
#32 = CARTESIAN_POINT ( 'NONE',  ( -2.688821387764051000E-014, 2.152993280603950700, -0.1338752421295757400 ) ) ;
#33 = APPROVAL_STATUS ( 'not_yet_approved' ) ;
#34 = VECTOR ( 'NONE', #155, 1000.000000000000000 ) ;
#35 = CARTESIAN_POINT ( 'NONE',  ( 6.426099281312352800, -2.152993280603960900, 0.2646874030813189400 ) ) ;
#36 = EDGE_LOOP ( 'NONE', ( #52, #77 ) ) ;
#37 = ORIENTED_EDGE ( 'NONE', *, *, #213, .T. ) ;
#38 = PERSON_AND_ORGANIZATION ( #132, #24 ) ;
#39 = VERTEX_POINT ( 'NONE', #17 ) ;
#40 = DATE_AND_TIME ( #208, #97 ) ;
#41 = AXIS2_PLACEMENT_3D ( 'NONE', #151, #137, #123 ) ;
#42 = CC_DESIGN_DATE_AND_TIME_ASSIGNMENT ( #57, #86, ( #66 ) ) ;
#43 =( NAMED_UNIT ( * ) SI_UNIT ( $, .STERADIAN. ) SOLID_ANGLE_UNIT ( ) );
#44 =( BOUNDED_SURFACE ( )  B_SPLINE_SURFACE ( 3, 3, ( 
 ( #183, #107, #80, #136 ),
 ( #30, #170, #45, #200 ),
 ( #53, #101, #19, #32 ),
 ( #197, #71, #157, #154 ) ),
 .UNSPECIFIED., .F., .F., .T. ) 
 B_SPLINE_SURFACE_WITH_KNOTS ( ( 4, 4 ),
 ( 4, 4 ),
 ( 0.0000000000000000000, 1.000000000000000000 ),
 ( 0.0000000000000000000, 1.000000000000000000 ),
 .UNSPECIFIED. ) 
 GEOMETRIC_REPRESENTATION_ITEM ( )  RATIONAL_B_SPLINE_SURFACE ( (
 ( 1.000000000000000000, 0.9987214247513506200, 0.9987214247513506200, 1.000000000000000000),
 ( 0.9948645562615903200, 0.9935925470641956400, 0.9935925470641956400, 0.9948645562615903200),
 ( 0.9948645562615903200, 0.9935925470641956400, 0.9935925470641956400, 0.9948645562615903200),
 ( 1.000000000000000000, 0.9987214247513506200, 0.9987214247513506200, 1.000000000000000000) ) ) 
 REPRESENTATION_ITEM ( '' )  SURFACE ( )  );
#45 = CARTESIAN_POINT ( 'NONE',  ( -2.148896639530613900, -2.152993280603959100, -0.1338752421295716900 ) ) ;
#46 = CARTESIAN_POINT ( 'NONE',  ( 2.498001805406600200E-016, -6.349999999999998800, 0.3901554003899501700 ) ) ;
#47 = SHAPE_DEFINITION_REPRESENTATION ( #96, #75 ) ;
#48 = PERSON_AND_ORGANIZATION_ROLE ( 'design_owner' ) ;
#49 = CARTESIAN_POINT ( 'NONE',  ( 2.126853973085152100, -6.425810114226723400, 0.3995632000669611100 ) ) ;
#50 = APPROVAL_ROLE ( '' ) ;
#51 = CARTESIAN_POINT ( 'NONE',  ( 2.498001805406600200E-016, 1.221245327087670000E-015, 0.3901554003899510000 ) ) ;
#52 = ORIENTED_EDGE ( 'NONE', *, *, #74, .F. ) ;
#53 = CARTESIAN_POINT ( 'NONE',  ( -6.426099281312358100, 2.152993280603952900, 0.2646874030813178800 ) ) ;
#54 = CARTESIAN_POINT ( 'NONE',  ( 6.426099281312354500, 2.152993280603949300, 0.2646874030813167700 ) ) ;
#55 = LOCAL_TIME ( 8, 29, 59.00000000000000000, #64 ) ;
#56 = ORIENTED_EDGE ( 'NONE', *, *, #126, .T. ) ;
#57 = DATE_AND_TIME ( #93, #178 ) ;
#58 = COORDINATED_UNIVERSAL_TIME_OFFSET ( 2, 0, .AHEAD. ) ;
#59 = APPROVAL_PERSON_ORGANIZATION ( #95, #108, #156 ) ;
#60 = CC_DESIGN_PERSON_AND_ORGANIZATION_ASSIGNMENT ( #113, #31, ( #133 ) ) ;
#61 = FACE_OUTER_BOUND ( 'NONE', #36, .T. ) ;
#62 = MANIFOLD_SOLID_BREP ( 'Imported1', #27 ) ;
#63 = AXIS2_PLACEMENT_3D ( 'NONE', #65, #15, #201 ) ;
#64 = COORDINATED_UNIVERSAL_TIME_OFFSET ( 2, 0, .AHEAD. ) ;
#65 = CARTESIAN_POINT ( 'NONE',  ( 2.498001805406600200E-016, 1.221245327087670000E-015, 0.3901554003899510000 ) ) ;
#66 = PRODUCT_DEFINITION ( 'UNKNOWN', '', #76, #11 ) ;
#67 = EDGE_LOOP ( 'NONE', ( #21, #214, #129, #91 ) ) ;
#68 = CARTESIAN_POINT ( 'NONE',  ( 2.498001805406600200E-016, -6.349999999999998800, 0.3901554003899501700 ) ) ;
#69 = DATE_TIME_ROLE ( 'classification_date' ) ;
#70 = APPROVAL_PERSON_ORGANIZATION ( #148, #147, #50 ) ;
#71 = CARTESIAN_POINT ( 'NONE',  ( -4.249628931899101400, 6.425810114226717200, 0.5312229777539796400 ) ) ;
#72 = CARTESIAN_POINT ( 'NONE',  ( 1.027450897999229200E-015, 6.350000000000000500, 0.3901554003899518300 ) ) ;
#73 = CARTESIAN_POINT ( 'NONE',  ( 2.126853973085156100, 6.425810114226715400, 0.3995632000669541700 ) ) ;
#74 = EDGE_CURVE ( 'NONE', #153, #118, #127, .T. ) ;
#75 = ADVANCED_BREP_SHAPE_REPRESENTATION ( '110-0117E BK7 pl-cx 12.7 F100', ( #62, #92 ), #161 ) ;
#76 = PRODUCT_DEFINITION_FORMATION_WITH_SPECIFIED_SOURCE ( 'ANY', '', #12, .NOT_KNOWN. ) ;
#77 = ORIENTED_EDGE ( 'NONE', *, *, #110, .T. ) ;
#78 = PRODUCT_RELATED_PRODUCT_CATEGORY ( 'detail', '', ( #12 ) ) ;
#79 = EDGE_CURVE ( 'NONE', #118, #114, #130, .T. ) ;
#80 = CARTESIAN_POINT ( 'NONE',  ( -2.126853973085174800, -6.425810114226721700, 0.3995632000669624400 ) ) ;
#81 = APPLICATION_CONTEXT ( 'configuration controlled 3d designs of mechanical parts and assemblies' ) ;
#82 = DIRECTION ( 'NONE',  ( 1.000000000000000000, -2.801096586449980200E-016, -5.251699512849379800E-016 ) ) ;
#83 = DIRECTION ( 'NONE',  ( 0.0000000000000000000, 0.0000000000000000000, 1.000000000000000000 ) ) ;
#84 = DIRECTION ( 'NONE',  ( 0.0000000000000000000, -1.000000000000000000, -1.280553747030123300E-016 ) ) ;
#85 = CARTESIAN_POINT ( 'NONE',  ( -1.506623894046989500E-015, -2.152993280603959100, -0.1338752421295727200 ) ) ;
#86 = DATE_TIME_ROLE ( 'creation_date' ) ;
#87 = CARTESIAN_POINT ( 'NONE',  ( 4.293671989978375500, 2.152993280603950700, -0.0008509454861192408700 ) ) ;
#88 = ADVANCED_FACE ( 'NONE', ( #131 ), #173, .T. ) ;
#89 = APPROVAL ( #18, 'UNSPECIFIED' ) ;
#90 = CARTESIAN_POINT ( 'NONE',  ( 6.360182493879436000, 6.425810114226712800, 0.7940375223290444500 ) ) ;
#91 = ORIENTED_EDGE ( 'NONE', *, *, #213, .F. ) ;
#92 = AXIS2_PLACEMENT_3D ( 'NONE', #117, #152, #119 ) ;
#93 = CALENDAR_DATE ( 2018, 21, 12 ) ;
#94 = EDGE_CURVE ( 'NONE', #118, #153, #191, .T. ) ;
#95 = PERSON_AND_ORGANIZATION ( #132, #24 ) ;
#96 = PRODUCT_DEFINITION_SHAPE ( 'NONE', 'NONE',  #66 ) ;
#97 = LOCAL_TIME ( 8, 29, 59.00000000000000000, #149 ) ;
#98 = PERSON_AND_ORGANIZATION_ROLE ( 'design_supplier' ) ;
#99 = CARTESIAN_POINT ( 'NONE',  ( 1.421085471520200100E-014, 2.486899575160350000E-014, 51.86999999999999700 ) ) ;
#100 = DIRECTION ( 'NONE',  ( 1.000000000000000000, 0.0000000000000000000, -0.0000000000000000000 ) ) ;
#101 = CARTESIAN_POINT ( 'NONE',  ( -4.293671989978389700, 2.152993280603952900, -0.0008509454861185362500 ) ) ;
#102 = APPLICATION_PROTOCOL_DEFINITION ( 'international standard', 'config_control_design', 1994, #186 ) ;
#103 = EDGE_LOOP ( 'NONE', ( #121, #199 ) ) ;
#104 = CARTESIAN_POINT ( 'NONE',  ( 2.498001805406600200E-016, 1.221245327087670000E-015, 0.3901554003899510000 ) ) ;
#105 = DIRECTION ( 'NONE',  ( 0.0000000000000000000, -1.000000000000000000, -1.365923996832131600E-016 ) ) ;
#106 = PERSON_AND_ORGANIZATION ( #132, #24 ) ;
#107 = CARTESIAN_POINT ( 'NONE',  ( -4.249628931899105000, -6.425810114226721700, 0.5312229777539866400 ) ) ;
#108 = APPROVAL ( #33, 'UNSPECIFIED' ) ;
#109 = ADVANCED_FACE ( 'NONE', ( #115 ), #168, .T. ) ;
#110 = EDGE_CURVE ( 'NONE', #153, #118, #180, .T. ) ;
#111 = CALENDAR_DATE ( 2018, 21, 12 ) ;
#112 = APPROVAL_DATE_TIME ( #134, #147 ) ;
#113 = PERSON_AND_ORGANIZATION ( #132, #24 ) ;
#114 = VERTEX_POINT ( 'NONE', #188 ) ;
#115 = FACE_OUTER_BOUND ( 'NONE', #103, .T. ) ;
#116 = APPROVAL_DATE_TIME ( #164, #108 ) ;
#117 = CARTESIAN_POINT ( 'NONE',  ( 0.0000000000000000000, 0.0000000000000000000, 0.0000000000000000000 ) ) ;
#118 = VERTEX_POINT ( 'NONE', #207 ) ;
#119 = DIRECTION ( 'NONE',  ( 1.000000000000000000, 0.0000000000000000000, 0.0000000000000000000 ) ) ;
#120 = CARTESIAN_POINT ( 'NONE',  ( 0.0000000000000000000, 13.15799999999999900, 3.000000000000000000 ) ) ;
#121 = ORIENTED_EDGE ( 'NONE', *, *, #94, .T. ) ;
#122 = CARTESIAN_POINT ( 'NONE',  ( -2.548442629456450000E-015, -6.425810114226721700, 0.3995632000669616100 ) ) ;
#123 = DIRECTION ( 'NONE',  ( 0.0000000000000000000, -1.000000000000000000, -1.365923996832131600E-016 ) ) ;
#124 =( LENGTH_UNIT ( ) NAMED_UNIT ( * ) SI_UNIT ( .MILLI., .METRE. ) );
#125 = CARTESIAN_POINT ( 'NONE',  ( 2.148896639530594800, -2.152993280603959600, -0.1338752421295732700 ) ) ;
#126 = EDGE_CURVE ( 'NONE', #39, #114, #192, .T. ) ;
#127 = CIRCLE ( 'NONE', #7, 51.86999999999999700 ) ;
#128 = CC_DESIGN_APPROVAL ( #89, ( #76 ) ) ;
#129 = ORIENTED_EDGE ( 'NONE', *, *, #150, .T. ) ;
#130 = LINE ( 'NONE', #72, #215 ) ;
#131 = FACE_OUTER_BOUND ( 'NONE', #67, .T. ) ;
#132 = PERSON ( 'UNSPECIFIED', 'UNSPECIFIED', 'UNSPECIFIED', ('UNSPECIFIED'), ('UNSPECIFIED'), ('UNSPECIFIED') ) ;
#133 = SECURITY_CLASSIFICATION ( '', '', #204 ) ;
#134 = DATE_AND_TIME ( #194, #203 ) ;
#135 = DIRECTION ( 'NONE',  ( 2.454403862353960100E-032, 1.276194404208249900E-016, -1.000000000000000000 ) ) ;
#136 = CARTESIAN_POINT ( 'NONE',  ( -2.775557561562891400E-014, -6.425810114226721700, 0.3995632000669607800 ) ) ;
#137 = DIRECTION ( 'NONE',  ( 2.454403862353960100E-032, 1.276194404208249900E-016, -1.000000000000000000 ) ) ;
#138 = APPROVAL_ROLE ( '' ) ;
#139 = APPLICATION_PROTOCOL_DEFINITION ( 'international standard', 'config_control_design', 1994, #81 ) ;
#140 = DIRECTION ( 'NONE',  ( -2.454403862353960100E-032, -1.276194404208249900E-016, 1.000000000000000000 ) ) ;
#141 = DIRECTION ( 'NONE',  ( 0.0000000000000000000, -1.000000000000000000, -1.280553747030123300E-016 ) ) ;
#142 = CARTESIAN_POINT ( 'NONE',  ( -3.004754682570964200E-016, 2.152993280603951100, -0.1338752421295748300 ) ) ;
#143 = AXIS2_PLACEMENT_3D ( 'NONE', #51, #185, #84 ) ;
#144 = ADVANCED_FACE ( 'NONE', ( #22 ), #167, .T. ) ;
#145 = CC_DESIGN_PERSON_AND_ORGANIZATION_ASSIGNMENT ( #38, #172, ( #76 ) ) ;
#146 = CC_DESIGN_DATE_AND_TIME_ASSIGNMENT ( #175, #69, ( #133 ) ) ;
#147 = APPROVAL ( #184, 'UNSPECIFIED' ) ;
#148 = PERSON_AND_ORGANIZATION ( #132, #24 ) ;
#149 = COORDINATED_UNIVERSAL_TIME_OFFSET ( 2, 0, .AHEAD. ) ;
#150 = EDGE_CURVE ( 'NONE', #114, #39, #162, .T. ) ;
#151 = CARTESIAN_POINT ( 'NONE',  ( 2.498001805406599800E-016, 8.881784197001235600E-016, 3.000000000000000000 ) ) ;
#152 = DIRECTION ( 'NONE',  ( 0.0000000000000000000, 0.0000000000000000000, 1.000000000000000000 ) ) ;
#153 = VERTEX_POINT ( 'NONE', #68 ) ;
#154 = CARTESIAN_POINT ( 'NONE',  ( -2.515349040166370300E-014, 6.425810114226714600, 0.3995632000669538400 ) ) ;
#155 = DIRECTION ( 'NONE',  ( -2.454403862353960100E-032, -1.276194404208249900E-016, 1.000000000000000000 ) ) ;
#156 = APPROVAL_ROLE ( '' ) ;
#157 = CARTESIAN_POINT ( 'NONE',  ( -2.126853973085172500, 6.425810114226717200, 0.3995632000669556100 ) ) ;
#158 = CARTESIAN_POINT ( 'NONE',  ( 4.293671989978373700, -2.152993280603960000, -0.0008509454861170184700 ) ) ;
#159 = PERSON_AND_ORGANIZATION ( #132, #24 ) ;
#160 = EDGE_LOOP ( 'NONE', ( #210, #9, #37, #56 ) ) ;
#161 =( GEOMETRIC_REPRESENTATION_CONTEXT ( 3 ) GLOBAL_UNCERTAINTY_ASSIGNED_CONTEXT ( ( #182 ) ) GLOBAL_UNIT_ASSIGNED_CONTEXT ( ( #124, #3, #43 ) ) REPRESENTATION_CONTEXT ( 'NONE', 'WORKASPACE' ) );
#162 = CIRCLE ( 'NONE', #1, 6.349999999999999600 ) ;
#163 = PERSON_AND_ORGANIZATION ( #132, #24 ) ;
#164 = DATE_AND_TIME ( #111, #55 ) ;
#165 = CC_DESIGN_PERSON_AND_ORGANIZATION_ASSIGNMENT ( #163, #98, ( #76 ) ) ;
#166 = FACE_OUTER_BOUND ( 'NONE', #179, .T. ) ;
#167 = CYLINDRICAL_SURFACE ( 'NONE', #63, 6.349999999999999600 ) ;
#168 =( BOUNDED_SURFACE ( )  B_SPLINE_SURFACE ( 3, 3, ( 
 ( #122, #49, #171, #205 ),
 ( #85, #125, #158, #35 ),
 ( #142, #20, #87, #54 ),
 ( #174, #73, #189, #90 ) ),
 .UNSPECIFIED., .F., .F., .T. ) 
 B_SPLINE_SURFACE_WITH_KNOTS ( ( 4, 4 ),
 ( 4, 4 ),
 ( 0.0000000000000000000, 1.000000000000000000 ),
 ( 0.0000000000000000000, 1.000000000000000000 ),
 .UNSPECIFIED. ) 
 GEOMETRIC_REPRESENTATION_ITEM ( )  RATIONAL_B_SPLINE_SURFACE ( (
 ( 1.000000000000000000, 0.9987214247513506200, 0.9987214247513506200, 1.000000000000000000),
 ( 0.9948645562615903200, 0.9935925470641956400, 0.9935925470641956400, 0.9948645562615903200),
 ( 0.9948645562615903200, 0.9935925470641956400, 0.9935925470641956400, 0.9948645562615903200),
 ( 1.000000000000000000, 0.9987214247513506200, 0.9987214247513506200, 1.000000000000000000) ) ) 
 REPRESENTATION_ITEM ( '' )  SURFACE ( )  );
#169 = AXIS2_PLACEMENT_3D ( 'NONE', #120, #83, #100 ) ;
#170 = CARTESIAN_POINT ( 'NONE',  ( -4.293671989978389700, -2.152993280603958200, -0.0008509454861163135200 ) ) ;
#171 = CARTESIAN_POINT ( 'NONE',  ( 4.249628931899090700, -6.425810114226723400, 0.5312229777539858600 ) ) ;
#172 = PERSON_AND_ORGANIZATION_ROLE ( 'creator' ) ;
#173 = CYLINDRICAL_SURFACE ( 'NONE', #176, 6.349999999999999600 ) ;
#174 = CARTESIAN_POINT ( 'NONE',  ( 1.051420325770788100E-015, 6.425810114226714600, 0.3995632000669546700 ) ) ;
#175 = DATE_AND_TIME ( #190, #14 ) ;
#176 = AXIS2_PLACEMENT_3D ( 'NONE', #104, #140, #206 ) ;
#177 = ADVANCED_FACE ( 'NONE', ( #166 ), #198, .T. ) ;
#178 = LOCAL_TIME ( 8, 29, 59.00000000000000000, #196 ) ;
#179 = EDGE_LOOP ( 'NONE', ( #211, #23 ) ) ;
#180 = CIRCLE ( 'NONE', #181, 6.349999999999999600 ) ;
#181 = AXIS2_PLACEMENT_3D ( 'NONE', #8, #26, #141 ) ;
#182 = UNCERTAINTY_MEASURE_WITH_UNIT (LENGTH_MEASURE( 1.000000000000000100E-005 ), #124, 'distance_accuracy_value', 'NONE');
#183 = CARTESIAN_POINT ( 'NONE',  ( -6.360182493879438700, -6.425810114226719900, 0.7940375223290524500 ) ) ;
#184 = APPROVAL_STATUS ( 'not_yet_approved' ) ;
#185 = DIRECTION ( 'NONE',  ( 2.454403862353960100E-032, 1.276194404208249900E-016, -1.000000000000000000 ) ) ;
#186 = APPLICATION_CONTEXT ( 'configuration controlled 3d designs of mechanical parts and assemblies' ) ;
#187 = APPROVAL_PERSON_ORGANIZATION ( #159, #89, #138 ) ;
#188 = CARTESIAN_POINT ( 'NONE',  ( 1.027450897999229200E-015, 6.350000000000000500, 3.000000000000000900 ) ) ;
#189 = CARTESIAN_POINT ( 'NONE',  ( 4.249628931899094300, 6.425810114226715400, 0.5312229777539789800 ) ) ;
#190 = CALENDAR_DATE ( 2018, 21, 12 ) ;
#191 = CIRCLE ( 'NONE', #143, 6.349999999999999600 ) ;
#192 = CIRCLE ( 'NONE', #41, 6.349999999999999600 ) ;
#193 = CC_DESIGN_APPROVAL ( #147, ( #66 ) ) ;
#194 = CALENDAR_DATE ( 2018, 21, 12 ) ;
#195 = CC_DESIGN_APPROVAL ( #108, ( #133 ) ) ;
#196 = COORDINATED_UNIVERSAL_TIME_OFFSET ( 2, 0, .AHEAD. ) ;
#197 = CARTESIAN_POINT ( 'NONE',  ( -6.360182493879436000, 6.425810114226716300, 0.7940375223290454500 ) ) ;
#198 = PLANE ( 'NONE',  #169 ) ;
#199 = ORIENTED_EDGE ( 'NONE', *, *, #74, .T. ) ;
#200 = CARTESIAN_POINT ( 'NONE',  ( -2.688821387764051000E-014, -2.152993280603959600, -0.1338752421295733900 ) ) ;
#201 = DIRECTION ( 'NONE',  ( 0.0000000000000000000, -1.000000000000000000, -1.280553747030123300E-016 ) ) ;
#202 = DIRECTION ( 'NONE',  ( -2.801096586449978200E-016, -1.000000000000000000, 2.675494082863785900E-016 ) ) ;
#203 = LOCAL_TIME ( 8, 29, 59.00000000000000000, #212 ) ;
#204 = SECURITY_CLASSIFICATION_LEVEL ( 'unclassified' ) ;
#205 = CARTESIAN_POINT ( 'NONE',  ( 6.360182493879431600, -6.425810114226723400, 0.7940375223290513400 ) ) ;
#206 = DIRECTION ( 'NONE',  ( 0.0000000000000000000, -1.000000000000000000, -1.280553747030123300E-016 ) ) ;
#207 = CARTESIAN_POINT ( 'NONE',  ( 1.027450897999229200E-015, 6.350000000000000500, 0.3901554003899518300 ) ) ;
#208 = CALENDAR_DATE ( 2018, 21, 12 ) ;
#209 = CC_DESIGN_PERSON_AND_ORGANIZATION_ASSIGNMENT ( #106, #4, ( #66 ) ) ;
#210 = ORIENTED_EDGE ( 'NONE', *, *, #79, .F. ) ;
#211 = ORIENTED_EDGE ( 'NONE', *, *, #126, .F. ) ;
#212 = COORDINATED_UNIVERSAL_TIME_OFFSET ( 2, 0, .AHEAD. ) ;
#213 = EDGE_CURVE ( 'NONE', #153, #39, #13, .T. ) ;
#214 = ORIENTED_EDGE ( 'NONE', *, *, #79, .T. ) ;
#215 = VECTOR ( 'NONE', #2, 1000.000000000000000 ) ;
ENDSEC;
END-ISO-10303-21;
