ISO-10303-21;
HEADER;
FILE_DESCRIPTION (( 'STEP AP203' ),
    '1' );
FILE_NAME ('110-0115E BK7 pl-cx 12.7 F75.STEP',
    '2018-12-21T06:30:11',
    ( '' ),
    ( '' ),
    'SwSTEP 2.0',
    'SolidWorks 2017',
    '' );
FILE_SCHEMA (( 'CONFIG_CONTROL_DESIGN' ));
ENDSEC;

DATA;
#1 = VERTEX_POINT ( 'NONE', #63 ) ;
#2 = PERSON_AND_ORGANIZATION ( #117, #138 ) ;
#3 = CARTESIAN_POINT ( 'NONE',  ( 2.498001805406600200E-016, 1.221245327087670000E-015, 0.5217835224199081100 ) ) ;
#4 = CC_DESIGN_DATE_AND_TIME_ASSIGNMENT ( #135, #109, ( #38 ) ) ;
#5 = PERSON_AND_ORGANIZATION_ROLE ( 'design_supplier' ) ;
#6 = APPROVAL_ROLE ( '' ) ;
#7 = APPROVAL_STATUS ( 'not_yet_approved' ) ;
#8 = ORIENTED_EDGE ( 'NONE', *, *, #206, .F. ) ;
#9 = ORIENTED_EDGE ( 'NONE', *, *, #41, .F. ) ;
#10 = PERSON_AND_ORGANIZATION ( #117, #138 ) ;
#11 = ADVANCED_FACE ( 'NONE', ( #74 ), #180, .T. ) ;
#12 = PRODUCT ( '110-0115E BK7 pl-cx 12.7 F75', '110-0115E BK7 pl-cx 12.7 F75', '', ( #37 ) ) ;
#13 = DIRECTION ( 'NONE',  ( 2.584767199870050000E-032, 1.343978261789209900E-016, -1.000000000000000000 ) ) ;
#14 = LOCAL_TIME ( 8, 30, 11.00000000000000000, #68 ) ;
#15 = DIRECTION ( 'NONE',  ( -2.584767199870050000E-032, -1.343978261789209900E-016, 1.000000000000000000 ) ) ;
#16 = ORIENTED_EDGE ( 'NONE', *, *, #92, .T. ) ;
#17 = CARTESIAN_POINT ( 'NONE',  ( 1.074083953202181500E-016, 2.161630087139834600, -0.1797637390617365900 ) ) ;
#18 = CARTESIAN_POINT ( 'NONE',  ( 3.002051076532146300E-016, -6.425503498731251800, 0.5343525430914625200 ) ) ;
#19 = DIRECTION ( 'NONE',  ( 0.0000000000000000000, -1.000000000000000000, -1.365923996832131600E-016 ) ) ;
#20 = CARTESIAN_POINT ( 'NONE',  ( 2.498001805406599800E-016, 8.881784197001229600E-016, 3.000000000000000000 ) ) ;
#21 = DATE_TIME_ROLE ( 'classification_date' ) ;
#22 =( BOUNDED_SURFACE ( )  B_SPLINE_SURFACE ( 3, 3, ( 
 ( #136, #137, #115, #29 ),
 ( #60, #181, #199, #164 ),
 ( #78, #28, #64, #183 ),
 ( #114, #97, #46, #80 ) ),
 .UNSPECIFIED., .F., .F., .F. ) 
 B_SPLINE_SURFACE_WITH_KNOTS ( ( 4, 4 ),
 ( 4, 4 ),
 ( 0.0000000000000000000, 1.000000000000000000 ),
 ( 0.0000000000000000000, 1.000000000000000000 ),
 .UNSPECIFIED. ) 
 GEOMETRIC_REPRESENTATION_ITEM ( )  RATIONAL_B_SPLINE_SURFACE ( (
 ( 1.000000000000000000, 0.9977183894829275700, 0.9977183894829275700, 1.000000000000000000),
 ( 0.9908422871792379500, 0.9885815709960497100, 0.9885815709960497100, 0.9908422871792379500),
 ( 0.9908422871792379500, 0.9885815709960497100, 0.9885815709960497100, 0.9908422871792379500),
 ( 1.000000000000000000, 0.9977183894829275700, 0.9977183894829275700, 1.000000000000000000) ) ) 
 REPRESENTATION_ITEM ( '' )  SURFACE ( )  );
#23 = APPROVAL_DATE_TIME ( #27, #34 ) ;
#24 = VECTOR ( 'NONE', #67, 1000.000000000000000 ) ;
#25 = CC_DESIGN_PERSON_AND_ORGANIZATION_ASSIGNMENT ( #112, #107, ( #88 ) ) ;
#26 = DIRECTION ( 'NONE',  ( 0.0000000000000000000, -1.000000000000000000, -3.567554706379037700E-016 ) ) ;
#27 = DATE_AND_TIME ( #170, #126 ) ;
#28 = CARTESIAN_POINT ( 'NONE',  ( -4.309713144468100900, 2.161630087139834200, -0.001332186870173028900 ) ) ;
#29 = CARTESIAN_POINT ( 'NONE',  ( 2.602085213965210600E-015, -6.425503498731251800, 0.5343525430914605200 ) ) ;
#30 = EDGE_LOOP ( 'NONE', ( #9, #190 ) ) ;
#31 = DIRECTION ( 'NONE',  ( 2.584767199870050000E-032, 1.343978261789209900E-016, -1.000000000000000000 ) ) ;
#32 = CARTESIAN_POINT ( 'NONE',  ( 3.002051076532146300E-016, 6.425503498731260700, 0.5343525430914625200 ) ) ;
#33 = CARTESIAN_POINT ( 'NONE',  ( 2.158550300534542600, 2.161630087139834200, -0.1797637390617371800 ) ) ;
#34 = APPROVAL ( #7, 'UNSPECIFIED' ) ;
#35 =( LENGTH_UNIT ( ) NAMED_UNIT ( * ) SI_UNIT ( .MILLI., .METRE. ) );
#36 = CIRCLE ( 'NONE', #77, 6.349999999999999600 ) ;
#37 = MECHANICAL_CONTEXT ( 'NONE', #87, 'mechanical' ) ;
#38 = PRODUCT_DEFINITION ( 'UNKNOWN', '', #88, #79 ) ;
#39 = ADVANCED_FACE ( 'NONE', ( #165 ), #22, .T. ) ;
#40 = PERSON_AND_ORGANIZATION ( #117, #138 ) ;
#41 = EDGE_CURVE ( 'NONE', #43, #65, #59, .T. ) ;
#42 = PERSON_AND_ORGANIZATION ( #117, #138 ) ;
#43 = VERTEX_POINT ( 'NONE', #166 ) ;
#44 = CARTESIAN_POINT ( 'NONE',  ( 1.027450897999229200E-015, 6.350000000000000500, 3.000000000000000900 ) ) ;
#45 = AXIS2_PLACEMENT_3D ( 'NONE', #147, #134, #26 ) ;
#46 = CARTESIAN_POINT ( 'NONE',  ( -2.119106461371373000, 6.425503498731260700, 0.5343525430914611900 ) ) ;
#47 = CARTESIAN_POINT ( 'NONE',  ( 1.027450897999229200E-015, 6.350000000000000500, 0.5217835224199088900 ) ) ;
#48 = CC_DESIGN_PERSON_AND_ORGANIZATION_ASSIGNMENT ( #40, #208, ( #38 ) ) ;
#49 = CARTESIAN_POINT ( 'NONE',  ( 2.119106461371369900, -6.425503498731251800, 0.5343525430914620700 ) ) ;
#50 = ORIENTED_EDGE ( 'NONE', *, *, #177, .T. ) ;
#51 = CARTESIAN_POINT ( 'NONE',  ( 6.321106709086342900, 6.425503498731260700, 1.058666583217018800 ) ) ;
#52 = CALENDAR_DATE ( 2018, 21, 12 ) ;
#53 = EDGE_CURVE ( 'NONE', #65, #43, #146, .T. ) ;
#54 = CYLINDRICAL_SURFACE ( 'NONE', #95, 6.349999999999999600 ) ;
#55 = PRODUCT_DEFINITION_SHAPE ( 'NONE', 'NONE',  #38 ) ;
#56 = CC_DESIGN_APPROVAL ( #34, ( #88 ) ) ;
#57 = ORIENTED_EDGE ( 'NONE', *, *, #200, .F. ) ;
#58 = COORDINATED_UNIVERSAL_TIME_OFFSET ( 2, 0, .AHEAD. ) ;
#59 = CIRCLE ( 'NONE', #45, 38.89999999999999900 ) ;
#60 = CARTESIAN_POINT ( 'NONE',  ( -6.438764184494703000, -2.161630087139825300, 0.3543095835947830400 ) ) ;
#61 = LINE ( 'NONE', #171, #24 ) ;
#62 = CALENDAR_DATE ( 2018, 21, 12 ) ;
#63 = CARTESIAN_POINT ( 'NONE',  ( 2.498001805406599800E-016, -6.349999999999998800, 2.999999999999999100 ) ) ;
#64 = CARTESIAN_POINT ( 'NONE',  ( -2.158550300534546600, 2.161630087139834600, -0.1797637390617381800 ) ) ;
#65 = VERTEX_POINT ( 'NONE', #47 ) ;
#66 = DIRECTION ( 'NONE',  ( 0.0000000000000000000, 0.0000000000000000000, 1.000000000000000000 ) ) ;
#67 = DIRECTION ( 'NONE',  ( -2.584767199870050000E-032, -1.343978261789209900E-016, 1.000000000000000000 ) ) ;
#68 = COORDINATED_UNIVERSAL_TIME_OFFSET ( 2, 0, .AHEAD. ) ;
#69 = PERSON_AND_ORGANIZATION_ROLE ( 'design_owner' ) ;
#70 =( BOUNDED_SURFACE ( )  B_SPLINE_SURFACE ( 3, 3, ( 
 ( #18, #49, #153, #215 ),
 ( #120, #141, #167, #122 ),
 ( #17, #33, #103, #155 ),
 ( #32, #169, #104, #51 ) ),
 .UNSPECIFIED., .F., .F., .F. ) 
 B_SPLINE_SURFACE_WITH_KNOTS ( ( 4, 4 ),
 ( 4, 4 ),
 ( 0.0000000000000000000, 1.000000000000000000 ),
 ( 0.0000000000000000000, 1.000000000000000000 ),
 .UNSPECIFIED. ) 
 GEOMETRIC_REPRESENTATION_ITEM ( )  RATIONAL_B_SPLINE_SURFACE ( (
 ( 1.000000000000000000, 0.9977183894829275700, 0.9977183894829275700, 1.000000000000000000),
 ( 0.9908422871792379500, 0.9885815709960497100, 0.9885815709960497100, 0.9908422871792379500),
 ( 0.9908422871792379500, 0.9885815709960497100, 0.9885815709960497100, 0.9908422871792379500),
 ( 1.000000000000000000, 0.9977183894829275700, 0.9977183894829275700, 1.000000000000000000) ) ) 
 REPRESENTATION_ITEM ( '' )  SURFACE ( )  );
#71 = EDGE_LOOP ( 'NONE', ( #211, #50, #94, #8 ) ) ;
#72 = APPROVAL_ROLE ( '' ) ;
#73 = AXIS2_PLACEMENT_3D ( 'NONE', #3, #31, #152 ) ;
#74 = FACE_OUTER_BOUND ( 'NONE', #71, .T. ) ;
#75 = APPROVAL_DATE_TIME ( #168, #148 ) ;
#76 = CARTESIAN_POINT ( 'NONE',  ( 2.498001805406600200E-016, 1.221245327087670000E-015, 0.5217835224199081100 ) ) ;
#77 = AXIS2_PLACEMENT_3D ( 'NONE', #202, #82, #123 ) ;
#78 = CARTESIAN_POINT ( 'NONE',  ( -6.438764184494702100, 2.161630087139834600, 0.3543095835947842600 ) ) ;
#79 = DESIGN_CONTEXT ( 'detailed design', #186, 'design' ) ;
#80 = CARTESIAN_POINT ( 'NONE',  ( 2.602085213965210600E-015, 6.425503498731260700, 0.5343525430914605200 ) ) ;
#81 = CIRCLE ( 'NONE', #73, 6.349999999999999600 ) ;
#82 = DIRECTION ( 'NONE',  ( 2.584767199870050000E-032, 1.343978261789209900E-016, -1.000000000000000000 ) ) ;
#83 = DIRECTION ( 'NONE',  ( 2.584767199870050000E-032, 1.343978261789209900E-016, -1.000000000000000000 ) ) ;
#84 = LOCAL_TIME ( 8, 30, 11.00000000000000000, #133 ) ;
#85 = AXIS2_PLACEMENT_3D ( 'NONE', #20, #83, #125 ) ;
#86 = PERSON_AND_ORGANIZATION ( #117, #138 ) ;
#87 = APPLICATION_CONTEXT ( 'configuration controlled 3d designs of mechanical parts and assemblies' ) ;
#88 = PRODUCT_DEFINITION_FORMATION_WITH_SPECIFIED_SOURCE ( 'ANY', '', #12, .NOT_KNOWN. ) ;
#89 = APPLICATION_PROTOCOL_DEFINITION ( 'international standard', 'config_control_design', 1994, #87 ) ;
#90 = CC_DESIGN_APPROVAL ( #188, ( #99 ) ) ;
#91 = FACE_OUTER_BOUND ( 'NONE', #108, .T. ) ;
#92 = EDGE_CURVE ( 'NONE', #1, #151, #156, .T. ) ;
#93 = ADVANCED_FACE ( 'NONE', ( #91 ), #163, .T. ) ;
#94 = ORIENTED_EDGE ( 'NONE', *, *, #200, .T. ) ;
#95 = AXIS2_PLACEMENT_3D ( 'NONE', #139, #142, #19 ) ;
#96 = CC_DESIGN_SECURITY_CLASSIFICATION ( #99, ( #88 ) ) ;
#97 = CARTESIAN_POINT ( 'NONE',  ( -4.230960459359158300, 6.425503498731260700, 0.7095235618386411800 ) ) ;
#98 = PERSON_AND_ORGANIZATION ( #117, #138 ) ;
#99 = SECURITY_CLASSIFICATION ( '', '', #205 ) ;
#100 = CARTESIAN_POINT ( 'NONE',  ( 2.498001805406600200E-016, 1.221245327087670000E-015, 0.5217835224199081100 ) ) ;
#101 = CARTESIAN_POINT ( 'NONE',  ( 0.0000000000000000000, 0.0000000000000000000, 0.0000000000000000000 ) ) ;
#102 = FACE_OUTER_BOUND ( 'NONE', #207, .T. ) ;
#103 = CARTESIAN_POINT ( 'NONE',  ( 4.309713144468092100, 2.161630087139834200, -0.001332186870174329900 ) ) ;
#104 = CARTESIAN_POINT ( 'NONE',  ( 4.230960459359148600, 6.425503498731260700, 0.7095235618386399600 ) ) ;
#105 =( GEOMETRIC_REPRESENTATION_CONTEXT ( 3 ) GLOBAL_UNCERTAINTY_ASSIGNED_CONTEXT ( ( #194 ) ) GLOBAL_UNIT_ASSIGNED_CONTEXT ( ( #35, #189, #174 ) ) REPRESENTATION_CONTEXT ( 'NONE', 'WORKASPACE' ) );
#106 = PERSON_AND_ORGANIZATION_ROLE ( 'classification_officer' ) ;
#107 = PERSON_AND_ORGANIZATION_ROLE ( 'creator' ) ;
#108 = EDGE_LOOP ( 'NONE', ( #193, #57 ) ) ;
#109 = DATE_TIME_ROLE ( 'creation_date' ) ;
#110 = AXIS2_PLACEMENT_3D ( 'NONE', #101, #66, #187 ) ;
#111 = PRODUCT_RELATED_PRODUCT_CATEGORY ( 'detail', '', ( #12 ) ) ;
#112 = PERSON_AND_ORGANIZATION ( #117, #138 ) ;
#113 = CLOSED_SHELL ( 'NONE', ( #212, #11, #39, #179, #93 ) ) ;
#114 = CARTESIAN_POINT ( 'NONE',  ( -6.321106709086358900, 6.425503498731260700, 1.058666583217023000 ) ) ;
#115 = CARTESIAN_POINT ( 'NONE',  ( -2.119106461371373000, -6.425503498731251800, 0.5343525430914611900 ) ) ;
#116 = CC_DESIGN_PERSON_AND_ORGANIZATION_ASSIGNMENT ( #10, #5, ( #88 ) ) ;
#117 = PERSON ( 'UNSPECIFIED', 'UNSPECIFIED', 'UNSPECIFIED', ('UNSPECIFIED'), ('UNSPECIFIED'), ('UNSPECIFIED') ) ;
#118 = DIRECTION ( 'NONE',  ( 0.0000000000000000000, -1.000000000000000000, -1.365923996832131600E-016 ) ) ;
#119 = LINE ( 'NONE', #154, #145 ) ;
#120 = CARTESIAN_POINT ( 'NONE',  ( 1.074083953202169700E-016, -2.161630087139825300, -0.1797637390617379500 ) ) ;
#121 = ADVANCED_BREP_SHAPE_REPRESENTATION ( '110-0115E BK7 pl-cx 12.7 F75', ( #173, #110 ), #105 ) ;
#122 = CARTESIAN_POINT ( 'NONE',  ( 6.438764184494685200, -2.161630087139825300, 0.3543095835947785400 ) ) ;
#123 = DIRECTION ( 'NONE',  ( 0.0000000000000000000, -1.000000000000000000, -1.365923996832131600E-016 ) ) ;
#124 = CC_DESIGN_APPROVAL ( #148, ( #38 ) ) ;
#125 = DIRECTION ( 'NONE',  ( 0.0000000000000000000, -1.000000000000000000, -1.365923996832131600E-016 ) ) ;
#126 = LOCAL_TIME ( 8, 30, 11.00000000000000000, #158 ) ;
#127 = ORIENTED_EDGE ( 'NONE', *, *, #206, .T. ) ;
#128 = APPROVAL_ROLE ( '' ) ;
#129 = LOCAL_TIME ( 8, 30, 11.00000000000000000, #213 ) ;
#130 = LOCAL_TIME ( 8, 30, 11.00000000000000000, #58 ) ;
#131 = CC_DESIGN_PERSON_AND_ORGANIZATION_ASSIGNMENT ( #86, #69, ( #12 ) ) ;
#132 = APPROVAL_PERSON_ORGANIZATION ( #42, #148, #72 ) ;
#133 = COORDINATED_UNIVERSAL_TIME_OFFSET ( 2, 0, .AHEAD. ) ;
#134 = DIRECTION ( 'NONE',  ( 1.000000000000000000, 0.0000000000000000000, 0.0000000000000000000 ) ) ;
#135 = DATE_AND_TIME ( #62, #129 ) ;
#136 = CARTESIAN_POINT ( 'NONE',  ( -6.321106709086358900, -6.425503498731251800, 1.058666583217023000 ) ) ;
#137 = CARTESIAN_POINT ( 'NONE',  ( -4.230960459359158300, -6.425503498731251800, 0.7095235618386411800 ) ) ;
#138 = ORGANIZATION ( 'UNSPECIFIED', 'UNSPECIFIED', '' ) ;
#139 = CARTESIAN_POINT ( 'NONE',  ( 2.498001805406600200E-016, 1.221245327087670000E-015, 0.5217835224199081100 ) ) ;
#140 = ORIENTED_EDGE ( 'NONE', *, *, #177, .F. ) ;
#141 = CARTESIAN_POINT ( 'NONE',  ( 2.158550300534542600, -2.161630087139824400, -0.1797637390617384800 ) ) ;
#142 = DIRECTION ( 'NONE',  ( -2.584767199870050000E-032, -1.343978261789209900E-016, 1.000000000000000000 ) ) ;
#143 = AXIS2_PLACEMENT_3D ( 'NONE', #184, #185, #204 ) ;
#144 = APPROVAL_STATUS ( 'not_yet_approved' ) ;
#145 = VECTOR ( 'NONE', #15, 1000.000000000000000 ) ;
#146 = CIRCLE ( 'NONE', #192, 6.349999999999999600 ) ;
#147 = CARTESIAN_POINT ( 'NONE',  ( 1.065814103640150000E-014, 1.065814103640150000E-014, 38.89999999999999900 ) ) ;
#148 = APPROVAL ( #144, 'UNSPECIFIED' ) ;
#149 = APPROVAL_PERSON_ORGANIZATION ( #2, #188, #6 ) ;
#150 = DIRECTION ( 'NONE',  ( -2.584767199870050000E-032, -1.343978261789209900E-016, 1.000000000000000000 ) ) ;
#151 = VERTEX_POINT ( 'NONE', #44 ) ;
#152 = DIRECTION ( 'NONE',  ( 0.0000000000000000000, -1.000000000000000000, -1.365923996832131600E-016 ) ) ;
#153 = CARTESIAN_POINT ( 'NONE',  ( 4.230960459359148600, -6.425503498731251800, 0.7095235618386399600 ) ) ;
#154 = CARTESIAN_POINT ( 'NONE',  ( 1.027450897999229200E-015, 6.350000000000000500, 0.5217835224199088900 ) ) ;
#155 = CARTESIAN_POINT ( 'NONE',  ( 6.438764184494685200, 2.161630087139834600, 0.3543095835947798800 ) ) ;
#156 = CIRCLE ( 'NONE', #85, 6.349999999999999600 ) ;
#157 = APPROVAL_STATUS ( 'not_yet_approved' ) ;
#158 = COORDINATED_UNIVERSAL_TIME_OFFSET ( 2, 0, .AHEAD. ) ;
#159 = CC_DESIGN_PERSON_AND_ORGANIZATION_ASSIGNMENT ( #98, #106, ( #99 ) ) ;
#160 = APPROVAL_DATE_TIME ( #198, #188 ) ;
#161 = ORIENTED_EDGE ( 'NONE', *, *, #195, .F. ) ;
#162 = APPROVAL_PERSON_ORGANIZATION ( #176, #34, #128 ) ;
#163 = PLANE ( 'NONE',  #143 ) ;
#164 = CARTESIAN_POINT ( 'NONE',  ( 2.602085213965210600E-015, -2.161630087139824900, -0.1797637390617400600 ) ) ;
#165 = FACE_OUTER_BOUND ( 'NONE', #30, .T. ) ;
#166 = CARTESIAN_POINT ( 'NONE',  ( 2.498001805406600200E-016, -6.349999999999998800, 0.5217835224199072200 ) ) ;
#167 = CARTESIAN_POINT ( 'NONE',  ( 4.309713144468092100, -2.161630087139824400, -0.001332186870175685400 ) ) ;
#168 = DATE_AND_TIME ( #175, #84 ) ;
#169 = CARTESIAN_POINT ( 'NONE',  ( 2.119106461371369900, 6.425503498731260700, 0.5343525430914620700 ) ) ;
#170 = CALENDAR_DATE ( 2018, 21, 12 ) ;
#171 = CARTESIAN_POINT ( 'NONE',  ( 2.498001805406600200E-016, -6.349999999999998800, 0.5217835224199072200 ) ) ;
#172 = AXIS2_PLACEMENT_3D ( 'NONE', #100, #150, #118 ) ;
#173 = MANIFOLD_SOLID_BREP ( 'Imported1', #113 ) ;
#174 =( NAMED_UNIT ( * ) SI_UNIT ( $, .STERADIAN. ) SOLID_ANGLE_UNIT ( ) );
#175 = CALENDAR_DATE ( 2018, 21, 12 ) ;
#176 = PERSON_AND_ORGANIZATION ( #117, #138 ) ;
#177 = EDGE_CURVE ( 'NONE', #65, #151, #119, .T. ) ;
#178 = ORIENTED_EDGE ( 'NONE', *, *, #41, .T. ) ;
#179 = ADVANCED_FACE ( 'NONE', ( #201 ), #54, .T. ) ;
#180 = CYLINDRICAL_SURFACE ( 'NONE', #172, 6.349999999999999600 ) ;
#181 = CARTESIAN_POINT ( 'NONE',  ( -4.309713144468102700, -2.161630087139824400, -0.001332186870174384100 ) ) ;
#182 = CC_DESIGN_DATE_AND_TIME_ASSIGNMENT ( #203, #21, ( #99 ) ) ;
#183 = CARTESIAN_POINT ( 'NONE',  ( 3.469446951953614200E-015, 2.161630087139835100, -0.1797637390617385600 ) ) ;
#184 = CARTESIAN_POINT ( 'NONE',  ( 0.0000000000000000000, 13.15799999999999900, 3.000000000000000000 ) ) ;
#185 = DIRECTION ( 'NONE',  ( 0.0000000000000000000, 0.0000000000000000000, 1.000000000000000000 ) ) ;
#186 = APPLICATION_CONTEXT ( 'configuration controlled 3d designs of mechanical parts and assemblies' ) ;
#187 = DIRECTION ( 'NONE',  ( 1.000000000000000000, 0.0000000000000000000, 0.0000000000000000000 ) ) ;
#188 = APPROVAL ( #157, 'UNSPECIFIED' ) ;
#189 =( NAMED_UNIT ( * ) PLANE_ANGLE_UNIT ( ) SI_UNIT ( $, .RADIAN. ) );
#190 = ORIENTED_EDGE ( 'NONE', *, *, #195, .T. ) ;
#191 = CALENDAR_DATE ( 2018, 21, 12 ) ;
#192 = AXIS2_PLACEMENT_3D ( 'NONE', #76, #13, #197 ) ;
#193 = ORIENTED_EDGE ( 'NONE', *, *, #92, .F. ) ;
#194 = UNCERTAINTY_MEASURE_WITH_UNIT (LENGTH_MEASURE( 1.000000000000000100E-005 ), #35, 'distance_accuracy_value', 'NONE');
#195 = EDGE_CURVE ( 'NONE', #43, #65, #81, .T. ) ;
#196 = EDGE_LOOP ( 'NONE', ( #140, #161, #127, #16 ) ) ;
#197 = DIRECTION ( 'NONE',  ( 0.0000000000000000000, -1.000000000000000000, -1.365923996832131600E-016 ) ) ;
#198 = DATE_AND_TIME ( #52, #14 ) ;
#199 = CARTESIAN_POINT ( 'NONE',  ( -2.158550300534547400, -2.161630087139824000, -0.1797637390617396200 ) ) ;
#200 = EDGE_CURVE ( 'NONE', #151, #1, #36, .T. ) ;
#201 = FACE_OUTER_BOUND ( 'NONE', #196, .T. ) ;
#202 = CARTESIAN_POINT ( 'NONE',  ( 2.498001805406599800E-016, 8.881784197001229600E-016, 3.000000000000000000 ) ) ;
#203 = DATE_AND_TIME ( #191, #130 ) ;
#204 = DIRECTION ( 'NONE',  ( 1.000000000000000000, 0.0000000000000000000, -0.0000000000000000000 ) ) ;
#205 = SECURITY_CLASSIFICATION_LEVEL ( 'unclassified' ) ;
#206 = EDGE_CURVE ( 'NONE', #43, #1, #61, .T. ) ;
#207 = EDGE_LOOP ( 'NONE', ( #214, #178 ) ) ;
#208 = PERSON_AND_ORGANIZATION_ROLE ( 'creator' ) ;
#209 = APPLICATION_PROTOCOL_DEFINITION ( 'international standard', 'config_control_design', 1994, #186 ) ;
#210 = SHAPE_DEFINITION_REPRESENTATION ( #55, #121 ) ;
#211 = ORIENTED_EDGE ( 'NONE', *, *, #53, .F. ) ;
#212 = ADVANCED_FACE ( 'NONE', ( #102 ), #70, .T. ) ;
#213 = COORDINATED_UNIVERSAL_TIME_OFFSET ( 2, 0, .AHEAD. ) ;
#214 = ORIENTED_EDGE ( 'NONE', *, *, #53, .T. ) ;
#215 = CARTESIAN_POINT ( 'NONE',  ( 6.321106709086342900, -6.425503498731251800, 1.058666583217018800 ) ) ;
ENDSEC;
END-ISO-10303-21;
