ISO-10303-21;
HEADER;
FILE_DESCRIPTION (( 'STEP AP203' ),
    '1' );
FILE_NAME ('110-0111E BK7 pl-cx 12.7 F60.STEP',
    '2018-12-21T06:30:23',
    ( '' ),
    ( '' ),
    'SwSTEP 2.0',
    'SolidWorks 2017',
    '' );
FILE_SCHEMA (( 'CONFIG_CONTROL_DESIGN' ));
ENDSEC;

DATA;
#1 = EDGE_CURVE ( 'NONE', #68, #144, #122, .T. ) ;
#2 = CARTESIAN_POINT ( 'NONE',  ( 4.330678105886693900, 2.172912566779889900, -0.001989992510611441500 ) ) ;
#3 = ORIENTED_EDGE ( 'NONE', *, *, #34, .T. ) ;
#4 = PLANE ( 'NONE',  #8 ) ;
#5 = PRODUCT_DEFINITION_SHAPE ( 'NONE', 'NONE',  #189 ) ;
#6 = CARTESIAN_POINT ( 'NONE',  ( 4.330678105886692100, -2.172912566779889900, -0.001989992510607592600 ) ) ;
#7 = PERSON_AND_ORGANIZATION ( #151, #53 ) ;
#8 = AXIS2_PLACEMENT_3D ( 'NONE', #41, #185, #73 ) ;
#9 = CARTESIAN_POINT ( 'NONE',  ( 2.498001805406600200E-016, 1.221245327087670000E-015, 0.6547427386539209600 ) ) ;
#10 = DIRECTION ( 'NONE',  ( 1.000000000000000000, -2.334397171258999800E-016, 3.419090247868619700E-017 ) ) ;
#11 = CARTESIAN_POINT ( 'NONE',  ( 2.498001805406599800E-016, -6.349999999999998800, 2.999999999999999100 ) ) ;
#12 = APPROVAL ( #177, 'UNSPECIFIED' ) ;
#13 = CALENDAR_DATE ( 2018, 21, 12 ) ;
#14 = VECTOR ( 'NONE', #61, 1000.000000000000000 ) ;
#15 = CARTESIAN_POINT ( 'NONE',  ( -4.330678105886677000, 2.172912566779892100, -0.001989992510612363000 ) ) ;
#16 = AXIS2_PLACEMENT_3D ( 'NONE', #155, #10, #126 ) ;
#17 = DATE_AND_TIME ( #64, #196 ) ;
#18 = EDGE_LOOP ( 'NONE', ( #93, #38 ) ) ;
#19 = DATE_TIME_ROLE ( 'classification_date' ) ;
#20 = APPLICATION_PROTOCOL_DEFINITION ( 'international standard', 'config_control_design', 1994, #75 ) ;
#21 = AXIS2_PLACEMENT_3D ( 'NONE', #190, #89, #195 ) ;
#22 = PERSON_AND_ORGANIZATION ( #151, #53 ) ;
#23 = FACE_OUTER_BOUND ( 'NONE', #80, .T. ) ;
#24 = CARTESIAN_POINT ( 'NONE',  ( 1.158152634818050800E-015, -2.172912566779888100, -0.2267549687142211800 ) ) ;
#25 = PRODUCT_RELATED_PRODUCT_CATEGORY ( 'detail', '', ( #162 ) ) ;
#26 = CARTESIAN_POINT ( 'NONE',  ( -4.206719636511546200, 6.425105021158538300, 0.8888252906977657200 ) ) ;
#27 = APPROVAL ( #48, 'UNSPECIFIED' ) ;
#28 =( LENGTH_UNIT ( ) NAMED_UNIT ( * ) SI_UNIT ( .MILLI., .METRE. ) );
#29 = CARTESIAN_POINT ( 'NONE',  ( -2.109025589575307600, -6.425105021158533900, 0.6704938386994009300 ) ) ;
#30 = CARTESIAN_POINT ( 'NONE',  ( 2.109025589575315600, 6.425105021158536500, 0.6704938386993953800 ) ) ;
#31 = APPROVAL_ROLE ( '' ) ;
#32 = PERSON_AND_ORGANIZATION ( #151, #53 ) ;
#33 = ORIENTED_EDGE ( 'NONE', *, *, #121, .F. ) ;
#34 = EDGE_CURVE ( 'NONE', #144, #68, #169, .T. ) ;
#35 = SECURITY_CLASSIFICATION_LEVEL ( 'unclassified' ) ;
#36 = PERSON_AND_ORGANIZATION_ROLE ( 'classification_officer' ) ;
#37 = LOCAL_TIME ( 8, 30, 23.00000000000000000, #212 ) ;
#38 = ORIENTED_EDGE ( 'NONE', *, *, #1, .T. ) ;
#39 = MANIFOLD_SOLID_BREP ( 'Imported1', #44 ) ;
#40 = EDGE_LOOP ( 'NONE', ( #109, #153, #176, #94 ) ) ;
#41 = CARTESIAN_POINT ( 'NONE',  ( 0.0000000000000000000, 13.15799999999999900, 3.000000000000000000 ) ) ;
#42 = CARTESIAN_POINT ( 'NONE',  ( 1.027450897999229200E-015, 6.350000000000000500, 0.6547427386539218500 ) ) ;
#43 = AXIS2_PLACEMENT_3D ( 'NONE', #9, #45, #170 ) ;
#44 = CLOSED_SHELL ( 'NONE', ( #110, #65, #211, #178, #52 ) ) ;
#45 = DIRECTION ( 'NONE',  ( -2.731304906716279800E-032, -1.420172161395980000E-016, 1.000000000000000000 ) ) ;
#46 = CARTESIAN_POINT ( 'NONE',  ( -1.734723475976807100E-015, -6.425105021158533900, 0.6704938386994002700 ) ) ;
#47 = CARTESIAN_POINT ( 'NONE',  ( -8.673617379884035500E-016, -2.172912566779888500, -0.2267549687142200700 ) ) ;
#48 = APPROVAL_STATUS ( 'not_yet_approved' ) ;
#49 = ORIENTED_EDGE ( 'NONE', *, *, #198, .T. ) ;
#50 = CC_DESIGN_PERSON_AND_ORGANIZATION_ASSIGNMENT ( #7, #194, ( #162 ) ) ;
#51 = APPLICATION_PROTOCOL_DEFINITION ( 'international standard', 'config_control_design', 1994, #115 ) ;
#52 = ADVANCED_FACE ( 'NONE', ( #215 ), #4, .T. ) ;
#53 = ORGANIZATION ( 'UNSPECIFIED', 'UNSPECIFIED', '' ) ;
#54 = CC_DESIGN_APPROVAL ( #12, ( #83 ) ) ;
#55 = DATE_AND_TIME ( #85, #150 ) ;
#56 = CARTESIAN_POINT ( 'NONE',  ( 3.212338742589519400E-016, -6.425105021158533000, 0.6704938386993992700 ) ) ;
#57 = FACE_OUTER_BOUND ( 'NONE', #18, .T. ) ;
#58 = CARTESIAN_POINT ( 'NONE',  ( 4.206719636511564000, 6.425105021158536500, 0.8888252906977668300 ) ) ;
#59 = CC_DESIGN_DATE_AND_TIME_ASSIGNMENT ( #67, #146, ( #189 ) ) ;
#60 = DIRECTION ( 'NONE',  ( 2.731304906716279800E-032, 1.420172161395980000E-016, -1.000000000000000000 ) ) ;
#61 = DIRECTION ( 'NONE',  ( -2.731304906716279800E-032, -1.420172161395980000E-016, 1.000000000000000000 ) ) ;
#62 = APPROVAL_PERSON_ORGANIZATION ( #157, #12, #95 ) ;
#63 = FACE_OUTER_BOUND ( 'NONE', #40, .T. ) ;
#64 = CALENDAR_DATE ( 2018, 21, 12 ) ;
#65 = ADVANCED_FACE ( 'NONE', ( #23 ), #102, .T. ) ;
#66 =( BOUNDED_SURFACE ( )  B_SPLINE_SURFACE ( 3, 3, ( 
 ( #56, #138, #168, #82 ),
 ( #24, #103, #6, #165 ),
 ( #100, #182, #2, #99 ),
 ( #118, #30, #58, #106 ) ),
 .UNSPECIFIED., .F., .F., .T. ) 
 B_SPLINE_SURFACE_WITH_KNOTS ( ( 4, 4 ),
 ( 4, 4 ),
 ( 0.0000000000000000000, 1.000000000000000000 ),
 ( 0.0000000000000000000, 1.000000000000000000 ),
 .UNSPECIFIED. ) 
 GEOMETRIC_REPRESENTATION_ITEM ( )  RATIONAL_B_SPLINE_SURFACE ( (
 ( 1.000000000000000000, 0.9964180796114016100, 0.9964180796114016100, 1.000000000000000000),
 ( 0.9856363787767910000, 0.9821059077359061100, 0.9821059077359061100, 0.9856363787767910000),
 ( 0.9856363787767910000, 0.9821059077359061100, 0.9821059077359061100, 0.9856363787767910000),
 ( 1.000000000000000000, 0.9964180796114016100, 0.9964180796114016100, 1.000000000000000000) ) ) 
 REPRESENTATION_ITEM ( '' )  SURFACE ( )  );
#67 = DATE_AND_TIME ( #160, #101 ) ;
#68 = VERTEX_POINT ( 'NONE', #87 ) ;
#69 = APPROVAL ( #175, 'UNSPECIFIED' ) ;
#70 = DIRECTION ( 'NONE',  ( 2.731304906716279800E-032, 1.420172161395980000E-016, -1.000000000000000000 ) ) ;
#71 = CARTESIAN_POINT ( 'NONE',  ( 2.498001805406600200E-016, 1.221245327087670000E-015, 0.6547427386539209600 ) ) ;
#72 = DIRECTION ( 'NONE',  ( -2.731304906716279800E-032, -1.420172161395980000E-016, 1.000000000000000000 ) ) ;
#73 = DIRECTION ( 'NONE',  ( 1.000000000000000000, 0.0000000000000000000, -0.0000000000000000000 ) ) ;
#74 = CARTESIAN_POINT ( 'NONE',  ( -6.455313449557683800, -2.172912566779887600, 0.4451246891438965800 ) ) ;
#75 = APPLICATION_CONTEXT ( 'configuration controlled 3d designs of mechanical parts and assemblies' ) ;
#76 = PERSON_AND_ORGANIZATION ( #151, #53 ) ;
#77 = CARTESIAN_POINT ( 'NONE',  ( 2.498001805406599800E-016, 8.881784197001221800E-016, 3.000000000000000000 ) ) ;
#78 = CARTESIAN_POINT ( 'NONE',  ( -6.270540821581438900, -6.425105021158532100, 1.323142057056352100 ) ) ;
#79 = DATE_AND_TIME ( #13, #207 ) ;
#80 = EDGE_LOOP ( 'NONE', ( #164, #173, #184, #33 ) ) ;
#81 = CIRCLE ( 'NONE', #163, 6.349999999999999600 ) ;
#82 = CARTESIAN_POINT ( 'NONE',  ( 6.270540821581455800, -6.425105021158534800, 1.323142057056354300 ) ) ;
#83 = SECURITY_CLASSIFICATION ( '', '', #35 ) ;
#84 = DIRECTION ( 'NONE',  ( 0.0000000000000000000, -1.000000000000000000, -1.365923996832131600E-016 ) ) ;
#85 = CALENDAR_DATE ( 2018, 21, 12 ) ;
#86 = LINE ( 'NONE', #199, #193 ) ;
#87 = CARTESIAN_POINT ( 'NONE',  ( 2.498001805406600200E-016, -6.349999999999998800, 0.6547427386539200800 ) ) ;
#88 = VERTEX_POINT ( 'NONE', #125 ) ;
#89 = DIRECTION ( 'NONE',  ( 0.0000000000000000000, 0.0000000000000000000, 1.000000000000000000 ) ) ;
#90 = CC_DESIGN_PERSON_AND_ORGANIZATION_ASSIGNMENT ( #131, #114, ( #141 ) ) ;
#91 = APPROVAL_PERSON_ORGANIZATION ( #76, #69, #213 ) ;
#92 = CARTESIAN_POINT ( 'NONE',  ( -2.171171776282800900, 2.172912566779891200, -0.2267549687142233800 ) ) ;
#93 = ORIENTED_EDGE ( 'NONE', *, *, #198, .F. ) ;
#94 = ORIENTED_EDGE ( 'NONE', *, *, #113, .T. ) ;
#95 = APPROVAL_ROLE ( '' ) ;
#96 = COORDINATED_UNIVERSAL_TIME_OFFSET ( 2, 0, .AHEAD. ) ;
#97 = ORIENTED_EDGE ( 'NONE', *, *, #166, .F. ) ;
#98 = LINE ( 'NONE', #129, #14 ) ;
#99 = CARTESIAN_POINT ( 'NONE',  ( 6.455313449557703400, 2.172912566779889000, 0.4451246891438951400 ) ) ;
#100 = CARTESIAN_POINT ( 'NONE',  ( 2.172640824674872100E-015, 2.172912566779891200, -0.2267549687142250400 ) ) ;
#101 = LOCAL_TIME ( 8, 30, 23.00000000000000000, #137 ) ;
#102 = CYLINDRICAL_SURFACE ( 'NONE', #124, 6.349999999999999600 ) ;
#103 = CARTESIAN_POINT ( 'NONE',  ( 2.171171776282808900, -2.172912566779889000, -0.2267549687142215200 ) ) ;
#104 = CC_DESIGN_APPROVAL ( #27, ( #189 ) ) ;
#105 = CARTESIAN_POINT ( 'NONE',  ( -4.330678105886678800, -2.172912566779888100, -0.001989992510608405700 ) ) ;
#106 = CARTESIAN_POINT ( 'NONE',  ( 6.270540821581460200, 6.425105021158534800, 1.323142057056351200 ) ) ;
#107 = CARTESIAN_POINT ( 'NONE',  ( 2.498001805406599800E-016, 8.881784197001221800E-016, 3.000000000000000000 ) ) ;
#108 = COORDINATED_UNIVERSAL_TIME_OFFSET ( 2, 0, .AHEAD. ) ;
#109 = ORIENTED_EDGE ( 'NONE', *, *, #159, .F. ) ;
#110 = ADVANCED_FACE ( 'NONE', ( #188 ), #66, .T. ) ;
#111 = PERSON_AND_ORGANIZATION ( #151, #53 ) ;
#112 =( BOUNDED_SURFACE ( )  B_SPLINE_SURFACE ( 3, 3, ( 
 ( #78, #205, #29, #46 ),
 ( #74, #105, #143, #47 ),
 ( #192, #15, #92, #206 ),
 ( #140, #26, #128, #130 ) ),
 .UNSPECIFIED., .F., .F., .F. ) 
 B_SPLINE_SURFACE_WITH_KNOTS ( ( 4, 4 ),
 ( 4, 4 ),
 ( 0.0000000000000000000, 1.000000000000000000 ),
 ( 0.0000000000000000000, 1.000000000000000000 ),
 .UNSPECIFIED. ) 
 GEOMETRIC_REPRESENTATION_ITEM ( )  RATIONAL_B_SPLINE_SURFACE ( (
 ( 1.000000000000000000, 0.9964180796114016100, 0.9964180796114016100, 1.000000000000000000),
 ( 0.9856363787767910000, 0.9821059077359061100, 0.9821059077359061100, 0.9856363787767910000),
 ( 0.9856363787767910000, 0.9821059077359061100, 0.9821059077359061100, 0.9856363787767910000),
 ( 1.000000000000000000, 0.9964180796114016100, 0.9964180796114016100, 1.000000000000000000) ) ) 
 REPRESENTATION_ITEM ( '' )  SURFACE ( )  );
#113 = EDGE_CURVE ( 'NONE', #197, #88, #209, .T. ) ;
#114 = PERSON_AND_ORGANIZATION_ROLE ( 'creator' ) ;
#115 = APPLICATION_CONTEXT ( 'configuration controlled 3d designs of mechanical parts and assemblies' ) ;
#116 = PERSON_AND_ORGANIZATION ( #151, #53 ) ;
#117 = EDGE_LOOP ( 'NONE', ( #3, #49 ) ) ;
#118 = CARTESIAN_POINT ( 'NONE',  ( 3.320983271545847900E-015, 6.425105021158536500, 0.6704938386993958300 ) ) ;
#119 = UNCERTAINTY_MEASURE_WITH_UNIT (LENGTH_MEASURE( 1.000000000000000100E-005 ), #28, 'distance_accuracy_value', 'NONE');
#120 = COORDINATED_UNIVERSAL_TIME_OFFSET ( 2, 0, .AHEAD. ) ;
#121 = EDGE_CURVE ( 'NONE', #68, #197, #86, .T. ) ;
#122 = CIRCLE ( 'NONE', #208, 6.349999999999999600 ) ;
#123 = DIRECTION ( 'NONE',  ( 0.0000000000000000000, -1.000000000000000000, -1.365923996832131600E-016 ) ) ;
#124 = AXIS2_PLACEMENT_3D ( 'NONE', #152, #72, #84 ) ;
#125 = CARTESIAN_POINT ( 'NONE',  ( 1.027450897999229200E-015, 6.350000000000000500, 3.000000000000000900 ) ) ;
#126 = DIRECTION ( 'NONE',  ( -2.334397171259000300E-016, -1.000000000000000000, -2.229721691486898600E-016 ) ) ;
#127 = CC_DESIGN_PERSON_AND_ORGANIZATION_ASSIGNMENT ( #32, #36, ( #83 ) ) ;
#128 = CARTESIAN_POINT ( 'NONE',  ( -2.109025589575304500, 6.425105021158537400, 0.6704938386993972700 ) ) ;
#129 = CARTESIAN_POINT ( 'NONE',  ( 1.027450897999229200E-015, 6.350000000000000500, 0.6547427386539218500 ) ) ;
#130 = CARTESIAN_POINT ( 'NONE',  ( 1.734723475976807100E-015, 6.425105021158535700, 0.6704938386993968300 ) ) ;
#131 = PERSON_AND_ORGANIZATION ( #151, #53 ) ;
#132 = CC_DESIGN_PERSON_AND_ORGANIZATION_ASSIGNMENT ( #22, #161, ( #141 ) ) ;
#133 = CC_DESIGN_PERSON_AND_ORGANIZATION_ASSIGNMENT ( #111, #174, ( #189 ) ) ;
#134 = AXIS2_PLACEMENT_3D ( 'NONE', #77, #156, #158 ) ;
#135 = EDGE_LOOP ( 'NONE', ( #202, #97 ) ) ;
#136 = CARTESIAN_POINT ( 'NONE',  ( 2.498001805406600200E-016, 1.221245327087670000E-015, 0.6547427386539209600 ) ) ;
#137 = COORDINATED_UNIVERSAL_TIME_OFFSET ( 2, 0, .AHEAD. ) ;
#138 = CARTESIAN_POINT ( 'NONE',  ( 2.109025589575312500, -6.425105021158534800, 0.6704938386993991600 ) ) ;
#139 = CIRCLE ( 'NONE', #16, 31.12000000000000100 ) ;
#140 = CARTESIAN_POINT ( 'NONE',  ( -6.270540821581436200, 6.425105021158537400, 1.323142057056348600 ) ) ;
#141 = PRODUCT_DEFINITION_FORMATION_WITH_SPECIFIED_SOURCE ( 'ANY', '', #162, .NOT_KNOWN. ) ;
#142 =( NAMED_UNIT ( * ) PLANE_ANGLE_UNIT ( ) SI_UNIT ( $, .RADIAN. ) );
#143 = CARTESIAN_POINT ( 'NONE',  ( -2.171171776282802700, -2.172912566779888500, -0.2267549687142195500 ) ) ;
#144 = VERTEX_POINT ( 'NONE', #42 ) ;
#145 = APPROVAL_DATE_TIME ( #55, #27 ) ;
#146 = DATE_TIME_ROLE ( 'creation_date' ) ;
#147 = MECHANICAL_CONTEXT ( 'NONE', #75, 'mechanical' ) ;
#148 = CALENDAR_DATE ( 2018, 21, 12 ) ;
#149 = CC_DESIGN_APPROVAL ( #69, ( #141 ) ) ;
#150 = LOCAL_TIME ( 8, 30, 23.00000000000000000, #96 ) ;
#151 = PERSON ( 'UNSPECIFIED', 'UNSPECIFIED', 'UNSPECIFIED', ('UNSPECIFIED'), ('UNSPECIFIED'), ('UNSPECIFIED') ) ;
#152 = CARTESIAN_POINT ( 'NONE',  ( 2.498001805406600200E-016, 1.221245327087670000E-015, 0.6547427386539209600 ) ) ;
#153 = ORIENTED_EDGE ( 'NONE', *, *, #1, .F. ) ;
#154 =( GEOMETRIC_REPRESENTATION_CONTEXT ( 3 ) GLOBAL_UNCERTAINTY_ASSIGNED_CONTEXT ( ( #119 ) ) GLOBAL_UNIT_ASSIGNED_CONTEXT ( ( #28, #142, #191 ) ) REPRESENTATION_CONTEXT ( 'NONE', 'WORKASPACE' ) );
#155 = CARTESIAN_POINT ( 'NONE',  ( 7.105427357601000300E-015, 0.0000000000000000000, 31.12000000000000100 ) ) ;
#156 = DIRECTION ( 'NONE',  ( 2.731304906716279800E-032, 1.420172161395980000E-016, -1.000000000000000000 ) ) ;
#157 = PERSON_AND_ORGANIZATION ( #151, #53 ) ;
#158 = DIRECTION ( 'NONE',  ( 0.0000000000000000000, -1.000000000000000000, -1.365923996832131600E-016 ) ) ;
#159 = EDGE_CURVE ( 'NONE', #144, #88, #98, .T. ) ;
#160 = CALENDAR_DATE ( 2018, 21, 12 ) ;
#161 = PERSON_AND_ORGANIZATION_ROLE ( 'design_supplier' ) ;
#162 = PRODUCT ( '110-0111E BK7 pl-cx 12.7 F60', '110-0111E BK7 pl-cx 12.7 F60', '', ( #147 ) ) ;
#163 = AXIS2_PLACEMENT_3D ( 'NONE', #107, #60, #171 ) ;
#164 = ORIENTED_EDGE ( 'NONE', *, *, #34, .F. ) ;
#165 = CARTESIAN_POINT ( 'NONE',  ( 6.455313449557701600, -2.172912566779890300, 0.4451246891438989700 ) ) ;
#166 = EDGE_CURVE ( 'NONE', #88, #197, #81, .T. ) ;
#167 = SHAPE_DEFINITION_REPRESENTATION ( #5, #179 ) ;
#168 = CARTESIAN_POINT ( 'NONE',  ( 4.206719636511560400, -6.425105021158534800, 0.8888252906977698300 ) ) ;
#169 = CIRCLE ( 'NONE', #210, 6.349999999999999600 ) ;
#170 = DIRECTION ( 'NONE',  ( 0.0000000000000000000, -1.000000000000000000, -1.365923996832131600E-016 ) ) ;
#171 = DIRECTION ( 'NONE',  ( 0.0000000000000000000, -1.000000000000000000, -1.365923996832131600E-016 ) ) ;
#172 = APPROVAL_DATE_TIME ( #17, #12 ) ;
#173 = ORIENTED_EDGE ( 'NONE', *, *, #159, .T. ) ;
#174 = PERSON_AND_ORGANIZATION_ROLE ( 'creator' ) ;
#175 = APPROVAL_STATUS ( 'not_yet_approved' ) ;
#176 = ORIENTED_EDGE ( 'NONE', *, *, #121, .T. ) ;
#177 = APPROVAL_STATUS ( 'not_yet_approved' ) ;
#178 = ADVANCED_FACE ( 'NONE', ( #63 ), #180, .T. ) ;
#179 = ADVANCED_BREP_SHAPE_REPRESENTATION ( '110-0111E BK7 pl-cx 12.7 F60', ( #39, #21 ), #154 ) ;
#180 = CYLINDRICAL_SURFACE ( 'NONE', #43, 6.349999999999999600 ) ;
#181 = CC_DESIGN_SECURITY_CLASSIFICATION ( #83, ( #141 ) ) ;
#182 = CARTESIAN_POINT ( 'NONE',  ( 2.171171776282810200, 2.172912566779890800, -0.2267549687142254900 ) ) ;
#183 = DESIGN_CONTEXT ( 'detailed design', #115, 'design' ) ;
#184 = ORIENTED_EDGE ( 'NONE', *, *, #166, .T. ) ;
#185 = DIRECTION ( 'NONE',  ( 0.0000000000000000000, 0.0000000000000000000, 1.000000000000000000 ) ) ;
#186 = DIRECTION ( 'NONE',  ( 2.731304906716279800E-032, 1.420172161395980000E-016, -1.000000000000000000 ) ) ;
#187 = APPROVAL_DATE_TIME ( #79, #69 ) ;
#188 = FACE_OUTER_BOUND ( 'NONE', #117, .T. ) ;
#189 = PRODUCT_DEFINITION ( 'UNKNOWN', '', #141, #183 ) ;
#190 = CARTESIAN_POINT ( 'NONE',  ( 0.0000000000000000000, 0.0000000000000000000, 0.0000000000000000000 ) ) ;
#191 =( NAMED_UNIT ( * ) SI_UNIT ( $, .STERADIAN. ) SOLID_ANGLE_UNIT ( ) );
#192 = CARTESIAN_POINT ( 'NONE',  ( -6.455313449557682000, 2.172912566779892100, 0.4451246891438925300 ) ) ;
#193 = VECTOR ( 'NONE', #200, 1000.000000000000000 ) ;
#194 = PERSON_AND_ORGANIZATION_ROLE ( 'design_owner' ) ;
#195 = DIRECTION ( 'NONE',  ( 1.000000000000000000, 0.0000000000000000000, 0.0000000000000000000 ) ) ;
#196 = LOCAL_TIME ( 8, 30, 23.00000000000000000, #120 ) ;
#197 = VERTEX_POINT ( 'NONE', #11 ) ;
#198 = EDGE_CURVE ( 'NONE', #68, #144, #139, .T. ) ;
#199 = CARTESIAN_POINT ( 'NONE',  ( 2.498001805406600200E-016, -6.349999999999998800, 0.6547427386539200800 ) ) ;
#200 = DIRECTION ( 'NONE',  ( -2.731304906716279800E-032, -1.420172161395980000E-016, 1.000000000000000000 ) ) ;
#201 = DATE_AND_TIME ( #148, #37 ) ;
#202 = ORIENTED_EDGE ( 'NONE', *, *, #113, .F. ) ;
#203 = DIRECTION ( 'NONE',  ( 0.0000000000000000000, -1.000000000000000000, -1.365923996832131600E-016 ) ) ;
#204 = APPROVAL_PERSON_ORGANIZATION ( #116, #27, #31 ) ;
#205 = CARTESIAN_POINT ( 'NONE',  ( -4.206719636511548900, -6.425105021158533000, 0.8888252906977692800 ) ) ;
#206 = CARTESIAN_POINT ( 'NONE',  ( 1.734723475976807100E-015, 2.172912566779890800, -0.2267549687142237600 ) ) ;
#207 = LOCAL_TIME ( 8, 30, 23.00000000000000000, #108 ) ;
#208 = AXIS2_PLACEMENT_3D ( 'NONE', #136, #186, #203 ) ;
#209 = CIRCLE ( 'NONE', #134, 6.349999999999999600 ) ;
#210 = AXIS2_PLACEMENT_3D ( 'NONE', #71, #70, #123 ) ;
#211 = ADVANCED_FACE ( 'NONE', ( #57 ), #112, .T. ) ;
#212 = COORDINATED_UNIVERSAL_TIME_OFFSET ( 2, 0, .AHEAD. ) ;
#213 = APPROVAL_ROLE ( '' ) ;
#214 = CC_DESIGN_DATE_AND_TIME_ASSIGNMENT ( #201, #19, ( #83 ) ) ;
#215 = FACE_OUTER_BOUND ( 'NONE', #135, .T. ) ;
ENDSEC;
END-ISO-10303-21;
