ISO-10303-21;
HEADER;
FILE_DESCRIPTION (( 'STEP AP203' ),
    '1' );
FILE_NAME ('110-0109E BK7 pl-cx 12.7 F50.STEP',
    '2018-12-21T06:30:35',
    ( '' ),
    ( '' ),
    'SwSTEP 2.0',
    'SolidWorks 2017',
    '' );
FILE_SCHEMA (( 'CONFIG_CONTROL_DESIGN' ));
ENDSEC;

DATA;
#1 = CARTESIAN_POINT ( 'NONE',  ( -2.186905500865491600, 2.186962102741602600, -0.2751103319532835500 ) ) ;
#2 = PRODUCT_RELATED_PRODUCT_CATEGORY ( 'detail', '', ( #44 ) ) ;
#3 = DIRECTION ( 'NONE',  ( -2.897461176612609700E-032, -1.506566949604319900E-016, 1.000000000000000000 ) ) ;
#4 = APPROVAL_STATUS ( 'not_yet_approved' ) ;
#5 = ORIENTED_EDGE ( 'NONE', *, *, #183, .F. ) ;
#6 = CC_DESIGN_DATE_AND_TIME_ASSIGNMENT ( #60, #43, ( #191 ) ) ;
#7 = APPROVAL_ROLE ( '' ) ;
#8 = PERSON_AND_ORGANIZATION_ROLE ( 'creator' ) ;
#9 = CC_DESIGN_APPROVAL ( #48, ( #191 ) ) ;
#10 = CARTESIAN_POINT ( 'NONE',  ( -4.176762556232211500, -6.424612048144907400, 1.069172234584429400 ) ) ;
#11 = EDGE_LOOP ( 'NONE', ( #169, #96 ) ) ;
#12 = AXIS2_PLACEMENT_3D ( 'NONE', #133, #3, #130 ) ;
#13 = ADVANCED_FACE ( 'NONE', ( #76 ), #29, .T. ) ;
#14 = APPROVAL_PERSON_ORGANIZATION ( #170, #186, #7 ) ;
#15 = CARTESIAN_POINT ( 'NONE',  ( 3.804011984593278400E-016, -2.186962102741598600, -0.2751103319532858800 ) ) ;
#16 = DIRECTION ( 'NONE',  ( -2.897461176612609700E-032, -1.506566949604319900E-016, 1.000000000000000000 ) ) ;
#17 = CARTESIAN_POINT ( 'NONE',  ( 1.027450897999229200E-015, 6.350000000000000500, 0.7892326160810759800 ) ) ;
#18 = DESIGN_CONTEXT ( 'detailed design', #110, 'design' ) ;
#19 = CARTESIAN_POINT ( 'NONE',  ( 2.096535036024492100, -6.424612048144906500, 0.8081882859426290400 ) ) ;
#20 = EDGE_CURVE ( 'NONE', #149, #47, #30, .T. ) ;
#21 = APPROVAL_ROLE ( '' ) ;
#22 = PERSON_AND_ORGANIZATION_ROLE ( 'classification_officer' ) ;
#23 = LOCAL_TIME ( 8, 30, 35.00000000000000000, #205 ) ;
#24 = PERSON_AND_ORGANIZATION_ROLE ( 'creator' ) ;
#25 = CALENDAR_DATE ( 2018, 21, 12 ) ;
#26 = VERTEX_POINT ( 'NONE', #156 ) ;
#27 = CALENDAR_DATE ( 2018, 21, 12 ) ;
#28 = DATE_AND_TIME ( #25, #45 ) ;
#29 = CYLINDRICAL_SURFACE ( 'NONE', #211, 6.349999999999999600 ) ;
#30 = LINE ( 'NONE', #210, #203 ) ;
#31 = CARTESIAN_POINT ( 'NONE',  ( -6.208321219071137000, -6.424612048144907400, 1.587080099674651700 ) ) ;
#32 = CARTESIAN_POINT ( 'NONE',  ( 2.186905500865486300, -2.186962102741599100, -0.2751103319532854900 ) ) ;
#33 = PERSON_AND_ORGANIZATION ( #98, #99 ) ;
#34 = CIRCLE ( 'NONE', #88, 6.349999999999999600 ) ;
#35 = CARTESIAN_POINT ( 'NONE',  ( 6.475928897840746300, -2.186962102741599100, 0.5373553615653036100 ) ) ;
#36 =( GEOMETRIC_REPRESENTATION_CONTEXT ( 3 ) GLOBAL_UNCERTAINTY_ASSIGNED_CONTEXT ( ( #46 ) ) GLOBAL_UNIT_ASSIGNED_CONTEXT ( ( #86, #137, #109 ) ) REPRESENTATION_CONTEXT ( 'NONE', 'WORKASPACE' ) );
#37 = CARTESIAN_POINT ( 'NONE',  ( -1.040834085586084300E-014, 6.424612048144910000, 0.8081882859426300400 ) ) ;
#38 = DIRECTION ( 'NONE',  ( 0.0000000000000000000, -1.000000000000000000, -5.349956749350214300E-016 ) ) ;
#39 = DIRECTION ( 'NONE',  ( 1.000000000000000000, 0.0000000000000000000, 0.0000000000000000000 ) ) ;
#40 = PRODUCT_DEFINITION_FORMATION_WITH_SPECIFIED_SOURCE ( 'ANY', '', #44, .NOT_KNOWN. ) ;
#41 = CARTESIAN_POINT ( 'NONE',  ( 6.208321219071143200, 6.424612048144910000, 1.587080099674653000 ) ) ;
#42 = CALENDAR_DATE ( 2018, 21, 12 ) ;
#43 = DATE_TIME_ROLE ( 'creation_date' ) ;
#44 = PRODUCT ( '110-0109E BK7 pl-cx 12.7 F50', '110-0109E BK7 pl-cx 12.7 F50', '', ( #108 ) ) ;
#45 = LOCAL_TIME ( 8, 30, 35.00000000000000000, #131 ) ;
#46 = UNCERTAINTY_MEASURE_WITH_UNIT (LENGTH_MEASURE( 1.000000000000000100E-005 ), #86, 'distance_accuracy_value', 'NONE');
#47 = VERTEX_POINT ( 'NONE', #100 ) ;
#48 = APPROVAL ( #4, 'UNSPECIFIED' ) ;
#49 = DIRECTION ( 'NONE',  ( -2.897461176612609700E-032, -1.506566949604319900E-016, 1.000000000000000000 ) ) ;
#50 = LOCAL_TIME ( 8, 30, 35.00000000000000000, #125 ) ;
#51 = CARTESIAN_POINT ( 'NONE',  ( 4.356800555717735600, -2.186962102741599100, -0.002876754590984930700 ) ) ;
#52 = CARTESIAN_POINT ( 'NONE',  ( 1.444661693385558700E-016, 6.424612048144910000, 0.8081882859426285900 ) ) ;
#53 = DIRECTION ( 'NONE',  ( 2.897461176612609700E-032, 1.506566949604319900E-016, -1.000000000000000000 ) ) ;
#54 = CARTESIAN_POINT ( 'NONE',  ( -4.176762556232211500, 6.424612048144910000, 1.069172234584429400 ) ) ;
#55 = APPLICATION_CONTEXT ( 'configuration controlled 3d designs of mechanical parts and assemblies' ) ;
#56 = SECURITY_CLASSIFICATION_LEVEL ( 'unclassified' ) ;
#57 = DIRECTION ( 'NONE',  ( 0.0000000000000000000, 0.0000000000000000000, 1.000000000000000000 ) ) ;
#58 = CIRCLE ( 'NONE', #78, 6.349999999999999600 ) ;
#59 = EDGE_LOOP ( 'NONE', ( #5, #135, #73, #70 ) ) ;
#60 = DATE_AND_TIME ( #42, #50 ) ;
#61 = LINE ( 'NONE', #17, #197 ) ;
#62 = ADVANCED_FACE ( 'NONE', ( #126 ), #181, .T. ) ;
#63 = CARTESIAN_POINT ( 'NONE',  ( -6.208321219071137900, 6.424612048144910000, 1.587080099674651700 ) ) ;
#64 = CARTESIAN_POINT ( 'NONE',  ( 3.804011984593282800E-016, 2.186962102741603100, -0.2751103319532854400 ) ) ;
#65 = CARTESIAN_POINT ( 'NONE',  ( -6.475928897840741900, 2.186962102741602200, 0.5373553615653021700 ) ) ;
#66 = CALENDAR_DATE ( 2018, 21, 12 ) ;
#67 = CC_DESIGN_APPROVAL ( #186, ( #40 ) ) ;
#68 = ORIENTED_EDGE ( 'NONE', *, *, #200, .F. ) ;
#69 = CARTESIAN_POINT ( 'NONE',  ( 2.498001805406599800E-016, 8.881784197001242500E-016, 3.000000000000000000 ) ) ;
#70 = ORIENTED_EDGE ( 'NONE', *, *, #134, .T. ) ;
#71 = DIRECTION ( 'NONE',  ( 1.000000000000000000, 0.0000000000000000000, 0.0000000000000000000 ) ) ;
#72 = PERSON_AND_ORGANIZATION_ROLE ( 'design_supplier' ) ;
#73 = ORIENTED_EDGE ( 'NONE', *, *, #20, .T. ) ;
#74 = ADVANCED_BREP_SHAPE_REPRESENTATION ( '110-0109E BK7 pl-cx 12.7 F50', ( #179, #111 ), #36 ) ;
#75 = PERSON_AND_ORGANIZATION ( #98, #99 ) ;
#76 = FACE_OUTER_BOUND ( 'NONE', #59, .T. ) ;
#77 = DATE_AND_TIME ( #66, #114 ) ;
#78 = AXIS2_PLACEMENT_3D ( 'NONE', #85, #199, #132 ) ;
#79 = CARTESIAN_POINT ( 'NONE',  ( -2.096535036024498800, -6.424612048144907400, 0.8081882859426304800 ) ) ;
#80 = CC_DESIGN_PERSON_AND_ORGANIZATION_ASSIGNMENT ( #153, #72, ( #40 ) ) ;
#81 = DIRECTION ( 'NONE',  ( 2.897461176612609700E-032, 1.506566949604319900E-016, -1.000000000000000000 ) ) ;
#82 = CALENDAR_DATE ( 2018, 21, 12 ) ;
#83 = CARTESIAN_POINT ( 'NONE',  ( 4.356800555717735600, 2.186962102741603100, -0.002876754590984496200 ) ) ;
#84 = CARTESIAN_POINT ( 'NONE',  ( 2.096535036024493000, 6.424612048144910900, 0.8081882859426290400 ) ) ;
#85 = CARTESIAN_POINT ( 'NONE',  ( 2.498001805406600200E-016, 1.221245327087670000E-015, 0.7892326160810749800 ) ) ;
#86 =( LENGTH_UNIT ( ) NAMED_UNIT ( * ) SI_UNIT ( .MILLI., .METRE. ) );
#87 = PERSON_AND_ORGANIZATION ( #98, #99 ) ;
#88 = AXIS2_PLACEMENT_3D ( 'NONE', #69, #81, #104 ) ;
#89 = EDGE_LOOP ( 'NONE', ( #208, #188 ) ) ;
#90 = APPROVAL_ROLE ( '' ) ;
#91 = APPROVAL_PERSON_ORGANIZATION ( #103, #48, #90 ) ;
#92 = APPROVAL_STATUS ( 'not_yet_approved' ) ;
#93 = CIRCLE ( 'NONE', #97, 25.94000000000000100 ) ;
#94 = EDGE_LOOP ( 'NONE', ( #124, #141, #119, #213 ) ) ;
#95 = FACE_OUTER_BOUND ( 'NONE', #94, .T. ) ;
#96 = ORIENTED_EDGE ( 'NONE', *, *, #200, .T. ) ;
#97 = AXIS2_PLACEMENT_3D ( 'NONE', #201, #39, #38 ) ;
#98 = PERSON ( 'UNSPECIFIED', 'UNSPECIFIED', 'UNSPECIFIED', ('UNSPECIFIED'), ('UNSPECIFIED'), ('UNSPECIFIED') ) ;
#99 = ORGANIZATION ( 'UNSPECIFIED', 'UNSPECIFIED', '' ) ;
#100 = CARTESIAN_POINT ( 'NONE',  ( 2.498001805406599800E-016, -6.349999999999998800, 2.999999999999999100 ) ) ;
#101 = AXIS2_PLACEMENT_3D ( 'NONE', #160, #144, #117 ) ;
#102 = CARTESIAN_POINT ( 'NONE',  ( 4.176762556232209700, -6.424612048144907400, 1.069172234584428800 ) ) ;
#103 = PERSON_AND_ORGANIZATION ( #98, #99 ) ;
#104 = DIRECTION ( 'NONE',  ( 0.0000000000000000000, -1.000000000000000000, -1.365923996832131600E-016 ) ) ;
#105 = AXIS2_PLACEMENT_3D ( 'NONE', #107, #198, #150 ) ;
#106 = ADVANCED_FACE ( 'NONE', ( #95 ), #185, .T. ) ;
#107 = CARTESIAN_POINT ( 'NONE',  ( 2.498001805406600200E-016, 1.221245327087670000E-015, 0.7892326160810749800 ) ) ;
#108 = MECHANICAL_CONTEXT ( 'NONE', #55, 'mechanical' ) ;
#109 =( NAMED_UNIT ( * ) SI_UNIT ( $, .STERADIAN. ) SOLID_ANGLE_UNIT ( ) );
#110 = APPLICATION_CONTEXT ( 'configuration controlled 3d designs of mechanical parts and assemblies' ) ;
#111 = AXIS2_PLACEMENT_3D ( 'NONE', #204, #57, #71 ) ;
#112 = ORIENTED_EDGE ( 'NONE', *, *, #162, .T. ) ;
#113 = DIRECTION ( 'NONE',  ( -2.897461176612609700E-032, -1.506566949604319900E-016, 1.000000000000000000 ) ) ;
#114 = LOCAL_TIME ( 8, 30, 35.00000000000000000, #202 ) ;
#115 =( BOUNDED_SURFACE ( )  B_SPLINE_SURFACE ( 3, 3, ( 
 ( #178, #19, #102, #214 ),
 ( #15, #32, #51, #35 ),
 ( #64, #173, #83, #147 ),
 ( #52, #84, #163, #41 ) ),
 .UNSPECIFIED., .F., .F., .T. ) 
 B_SPLINE_SURFACE_WITH_KNOTS ( ( 4, 4 ),
 ( 4, 4 ),
 ( 0.0000000000000000000, 1.000000000000000000 ),
 ( 0.0000000000000000000, 1.000000000000000000 ),
 .UNSPECIFIED. ) 
 GEOMETRIC_REPRESENTATION_ITEM ( )  RATIONAL_B_SPLINE_SURFACE ( (
 ( 1.000000000000000000, 0.9948144547911788000, 0.9948144547911788000, 1.000000000000000000),
 ( 0.9792292910320578000, 0.9741514532736091900, 0.9741514532736091900, 0.9792292910320578000),
 ( 0.9792292910320578000, 0.9741514532736091900, 0.9741514532736091900, 0.9792292910320578000),
 ( 1.000000000000000000, 0.9948144547911788000, 0.9948144547911788000, 1.000000000000000000) ) ) 
 REPRESENTATION_ITEM ( '' )  SURFACE ( )  );
#116 = CARTESIAN_POINT ( 'NONE',  ( -2.186905500865491600, -2.186962102741599100, -0.2751103319532838800 ) ) ;
#117 = DIRECTION ( 'NONE',  ( 1.000000000000000000, 0.0000000000000000000, -0.0000000000000000000 ) ) ;
#118 = DATE_TIME_ROLE ( 'classification_date' ) ;
#119 = ORIENTED_EDGE ( 'NONE', *, *, #122, .T. ) ;
#120 = APPROVAL_STATUS ( 'not_yet_approved' ) ;
#121 = PERSON_AND_ORGANIZATION ( #98, #99 ) ;
#122 = EDGE_CURVE ( 'NONE', #26, #47, #182, .T. ) ;
#123 = APPROVAL_DATE_TIME ( #28, #48 ) ;
#124 = ORIENTED_EDGE ( 'NONE', *, *, #140, .F. ) ;
#125 = COORDINATED_UNIVERSAL_TIME_OFFSET ( 2, 0, .AHEAD. ) ;
#126 = FACE_OUTER_BOUND ( 'NONE', #157, .T. ) ;
#127 = DIRECTION ( 'NONE',  ( 0.0000000000000000000, -1.000000000000000000, -1.536664496436148200E-016 ) ) ;
#128 = AXIS2_PLACEMENT_3D ( 'NONE', #159, #53, #195 ) ;
#129 = ADVANCED_FACE ( 'NONE', ( #152 ), #161, .T. ) ;
#130 = DIRECTION ( 'NONE',  ( 0.0000000000000000000, -1.000000000000000000, -1.536664496436148200E-016 ) ) ;
#131 = COORDINATED_UNIVERSAL_TIME_OFFSET ( 2, 0, .AHEAD. ) ;
#132 = DIRECTION ( 'NONE',  ( 0.0000000000000000000, -1.000000000000000000, -1.536664496436148200E-016 ) ) ;
#133 = CARTESIAN_POINT ( 'NONE',  ( 2.498001805406600200E-016, 1.221245327087670000E-015, 0.7892326160810749800 ) ) ;
#134 = EDGE_CURVE ( 'NONE', #47, #26, #34, .T. ) ;
#135 = ORIENTED_EDGE ( 'NONE', *, *, #162, .F. ) ;
#136 = CC_DESIGN_PERSON_AND_ORGANIZATION_ASSIGNMENT ( #87, #165, ( #44 ) ) ;
#137 =( NAMED_UNIT ( * ) PLANE_ANGLE_UNIT ( ) SI_UNIT ( $, .RADIAN. ) );
#138 = VERTEX_POINT ( 'NONE', #175 ) ;
#139 = PRODUCT_DEFINITION_SHAPE ( 'NONE', 'NONE',  #191 ) ;
#140 = EDGE_CURVE ( 'NONE', #138, #149, #58, .T. ) ;
#141 = ORIENTED_EDGE ( 'NONE', *, *, #183, .T. ) ;
#142 = CARTESIAN_POINT ( 'NONE',  ( -4.356800555717735600, -2.186962102741599100, -0.002876754590983736800 ) ) ;
#143 = SECURITY_CLASSIFICATION ( '', '', #56 ) ;
#144 = DIRECTION ( 'NONE',  ( 0.0000000000000000000, 0.0000000000000000000, 1.000000000000000000 ) ) ;
#145 = CARTESIAN_POINT ( 'NONE',  ( -2.096535036024498300, 6.424612048144910000, 0.8081882859426305900 ) ) ;
#146 = CC_DESIGN_DATE_AND_TIME_ASSIGNMENT ( #77, #118, ( #143 ) ) ;
#147 = CARTESIAN_POINT ( 'NONE',  ( 6.475928897840746300, 2.186962102741602600, 0.5373553615653039500 ) ) ;
#148 = CARTESIAN_POINT ( 'NONE',  ( -1.127570259384924600E-014, 2.186962102741602600, -0.2751103319532839900 ) ) ;
#149 = VERTEX_POINT ( 'NONE', #193 ) ;
#150 = DIRECTION ( 'NONE',  ( 0.0000000000000000000, -1.000000000000000000, -1.536664496436148200E-016 ) ) ;
#151 = APPLICATION_PROTOCOL_DEFINITION ( 'international standard', 'config_control_design', 1994, #110 ) ;
#152 = FACE_OUTER_BOUND ( 'NONE', #89, .T. ) ;
#153 = PERSON_AND_ORGANIZATION ( #98, #99 ) ;
#154 = APPROVAL_PERSON_ORGANIZATION ( #33, #155, #21 ) ;
#155 = APPROVAL ( #120, 'UNSPECIFIED' ) ;
#156 = CARTESIAN_POINT ( 'NONE',  ( 1.027450897999229200E-015, 6.350000000000000500, 3.000000000000000900 ) ) ;
#157 = EDGE_LOOP ( 'NONE', ( #68, #112 ) ) ;
#158 = CARTESIAN_POINT ( 'NONE',  ( -4.356800555717735600, 2.186962102741602600, -0.002876754590983521300 ) ) ;
#159 = CARTESIAN_POINT ( 'NONE',  ( 2.498001805406599800E-016, 8.881784197001242500E-016, 3.000000000000000000 ) ) ;
#160 = CARTESIAN_POINT ( 'NONE',  ( 0.0000000000000000000, 13.15799999999999900, 3.000000000000000000 ) ) ;
#161 = PLANE ( 'NONE',  #101 ) ;
#162 = EDGE_CURVE ( 'NONE', #149, #138, #168, .T. ) ;
#163 = CARTESIAN_POINT ( 'NONE',  ( 4.176762556232211500, 6.424612048144910000, 1.069172234584428800 ) ) ;
#164 = DATE_AND_TIME ( #82, #215 ) ;
#165 = PERSON_AND_ORGANIZATION_ROLE ( 'design_owner' ) ;
#166 = CC_DESIGN_PERSON_AND_ORGANIZATION_ASSIGNMENT ( #184, #8, ( #40 ) ) ;
#167 = APPROVAL_DATE_TIME ( #192, #155 ) ;
#168 = CIRCLE ( 'NONE', #105, 6.349999999999999600 ) ;
#169 = ORIENTED_EDGE ( 'NONE', *, *, #140, .T. ) ;
#170 = PERSON_AND_ORGANIZATION ( #98, #99 ) ;
#171 = CC_DESIGN_PERSON_AND_ORGANIZATION_ASSIGNMENT ( #75, #22, ( #143 ) ) ;
#172 = CARTESIAN_POINT ( 'NONE',  ( -1.127570259384924600E-014, -2.186962102741599100, -0.2751103319532843800 ) ) ;
#173 = CARTESIAN_POINT ( 'NONE',  ( 2.186905500865486300, 2.186962102741603100, -0.2751103319532849400 ) ) ;
#174 = CC_DESIGN_APPROVAL ( #155, ( #143 ) ) ;
#175 = CARTESIAN_POINT ( 'NONE',  ( 1.027450897999229200E-015, 6.350000000000000500, 0.7892326160810759800 ) ) ;
#176 = FACE_OUTER_BOUND ( 'NONE', #11, .T. ) ;
#177 = CLOSED_SHELL ( 'NONE', ( #194, #106, #62, #13, #129 ) ) ;
#178 = CARTESIAN_POINT ( 'NONE',  ( 1.444661693385543100E-016, -6.424612048144906500, 0.8081882859426285900 ) ) ;
#179 = MANIFOLD_SOLID_BREP ( 'Imported1', #177 ) ;
#180 = APPLICATION_PROTOCOL_DEFINITION ( 'international standard', 'config_control_design', 1994, #55 ) ;
#181 =( BOUNDED_SURFACE ( )  B_SPLINE_SURFACE ( 3, 3, ( 
 ( #31, #10, #79, #190 ),
 ( #212, #142, #116, #172 ),
 ( #65, #158, #1, #148 ),
 ( #63, #54, #145, #37 ) ),
 .UNSPECIFIED., .F., .F., .F. ) 
 B_SPLINE_SURFACE_WITH_KNOTS ( ( 4, 4 ),
 ( 4, 4 ),
 ( 0.0000000000000000000, 1.000000000000000000 ),
 ( 0.0000000000000000000, 1.000000000000000000 ),
 .UNSPECIFIED. ) 
 GEOMETRIC_REPRESENTATION_ITEM ( )  RATIONAL_B_SPLINE_SURFACE ( (
 ( 1.000000000000000000, 0.9948144547911788000, 0.9948144547911788000, 1.000000000000000000),
 ( 0.9792292910320578000, 0.9741514532736091900, 0.9741514532736091900, 0.9792292910320578000),
 ( 0.9792292910320578000, 0.9741514532736091900, 0.9741514532736091900, 0.9792292910320578000),
 ( 1.000000000000000000, 0.9948144547911788000, 0.9948144547911788000, 1.000000000000000000) ) ) 
 REPRESENTATION_ITEM ( '' )  SURFACE ( )  );
#182 = CIRCLE ( 'NONE', #128, 6.349999999999999600 ) ;
#183 = EDGE_CURVE ( 'NONE', #138, #26, #61, .T. ) ;
#184 = PERSON_AND_ORGANIZATION ( #98, #99 ) ;
#185 = CYLINDRICAL_SURFACE ( 'NONE', #12, 6.349999999999999600 ) ;
#186 = APPROVAL ( #92, 'UNSPECIFIED' ) ;
#187 = APPROVAL_DATE_TIME ( #164, #186 ) ;
#188 = ORIENTED_EDGE ( 'NONE', *, *, #122, .F. ) ;
#189 = CARTESIAN_POINT ( 'NONE',  ( 2.498001805406600200E-016, 1.221245327087670000E-015, 0.7892326160810749800 ) ) ;
#190 = CARTESIAN_POINT ( 'NONE',  ( -1.127570259384924600E-014, -6.424612048144907400, 0.8081882859426298100 ) ) ;
#191 = PRODUCT_DEFINITION ( 'UNKNOWN', '', #40, #18 ) ;
#192 = DATE_AND_TIME ( #27, #23 ) ;
#193 = CARTESIAN_POINT ( 'NONE',  ( 2.498001805406600200E-016, -6.349999999999998800, 0.7892326160810739800 ) ) ;
#194 = ADVANCED_FACE ( 'NONE', ( #176 ), #115, .T. ) ;
#195 = DIRECTION ( 'NONE',  ( 0.0000000000000000000, -1.000000000000000000, -1.365923996832131600E-016 ) ) ;
#196 = COORDINATED_UNIVERSAL_TIME_OFFSET ( 2, 0, .AHEAD. ) ;
#197 = VECTOR ( 'NONE', #16, 1000.000000000000000 ) ;
#198 = DIRECTION ( 'NONE',  ( 2.897461176612609700E-032, 1.506566949604319900E-016, -1.000000000000000000 ) ) ;
#199 = DIRECTION ( 'NONE',  ( 2.897461176612609700E-032, 1.506566949604319900E-016, -1.000000000000000000 ) ) ;
#200 = EDGE_CURVE ( 'NONE', #149, #138, #93, .T. ) ;
#201 = CARTESIAN_POINT ( 'NONE',  ( -5.329070518200749800E-015, 3.552713678800500100E-015, 25.94000000000000100 ) ) ;
#202 = COORDINATED_UNIVERSAL_TIME_OFFSET ( 2, 0, .AHEAD. ) ;
#203 = VECTOR ( 'NONE', #113, 1000.000000000000000 ) ;
#204 = CARTESIAN_POINT ( 'NONE',  ( 0.0000000000000000000, 0.0000000000000000000, 0.0000000000000000000 ) ) ;
#205 = COORDINATED_UNIVERSAL_TIME_OFFSET ( 2, 0, .AHEAD. ) ;
#206 = SHAPE_DEFINITION_REPRESENTATION ( #139, #74 ) ;
#207 = CC_DESIGN_SECURITY_CLASSIFICATION ( #143, ( #40 ) ) ;
#208 = ORIENTED_EDGE ( 'NONE', *, *, #134, .F. ) ;
#209 = CC_DESIGN_PERSON_AND_ORGANIZATION_ASSIGNMENT ( #121, #24, ( #191 ) ) ;
#210 = CARTESIAN_POINT ( 'NONE',  ( 2.498001805406600200E-016, -6.349999999999998800, 0.7892326160810739800 ) ) ;
#211 = AXIS2_PLACEMENT_3D ( 'NONE', #189, #49, #127 ) ;
#212 = CARTESIAN_POINT ( 'NONE',  ( -6.475928897840741900, -2.186962102741599500, 0.5373553615653019500 ) ) ;
#213 = ORIENTED_EDGE ( 'NONE', *, *, #20, .F. ) ;
#214 = CARTESIAN_POINT ( 'NONE',  ( 6.208321219071141400, -6.424612048144907400, 1.587080099674652800 ) ) ;
#215 = LOCAL_TIME ( 8, 30, 35.00000000000000000, #196 ) ;
ENDSEC;
END-ISO-10303-21;
