ISO-10303-21;
HEADER;
FILE_DESCRIPTION (( 'STEP AP203' ),
    '1' );
FILE_NAME ('110-0107E BK7 pl-cx 12.7 F40.STEP',
    '2018-12-21T06:30:50',
    ( '' ),
    ( '' ),
    'SwSTEP 2.0',
    'SolidWorks 2017',
    '' );
FILE_SCHEMA (( 'CONFIG_CONTROL_DESIGN' ));
ENDSEC;

DATA;
#1 = PERSON_AND_ORGANIZATION ( #32, #186 ) ;
#2 = CARTESIAN_POINT ( 'NONE',  ( 4.120382622920351100, 6.423682679036196500, 1.343344270551605000 ) ) ;
#3 = CC_DESIGN_APPROVAL ( #155, ( #210 ) ) ;
#4 = DIRECTION ( 'NONE',  ( 3.195627101123639800E-032, 1.661601616157370100E-016, -1.000000000000000000 ) ) ;
#5 = CARTESIAN_POINT ( 'NONE',  ( -1.734723475976807100E-015, 2.213727114042195700, -0.3512858187916265100 ) ) ;
#6 = CARTESIAN_POINT ( 'NONE',  ( -2.072929984718647300, 6.423682679036192100, 1.019343628782889900 ) ) ;
#7 = PERSON_AND_ORGANIZATION ( #32, #186 ) ;
#8 = EDGE_LOOP ( 'NONE', ( #46, #28, #50, #11 ) ) ;
#9 = DIRECTION ( 'NONE',  ( 0.0000000000000000000, -1.000000000000000000, -1.365923996832131600E-016 ) ) ;
#10 =( GEOMETRIC_REPRESENTATION_CONTEXT ( 3 ) GLOBAL_UNCERTAINTY_ASSIGNED_CONTEXT ( ( #43 ) ) GLOBAL_UNIT_ASSIGNED_CONTEXT ( ( #160, #22, #137 ) ) REPRESENTATION_CONTEXT ( 'NONE', 'WORKASPACE' ) );
#11 = ORIENTED_EDGE ( 'NONE', *, *, #191, .T. ) ;
#12 = APPROVAL_STATUS ( 'not_yet_approved' ) ;
#13 = CYLINDRICAL_SURFACE ( 'NONE', #203, 6.349999999999999600 ) ;
#14 = APPROVAL_DATE_TIME ( #61, #196 ) ;
#15 = VERTEX_POINT ( 'NONE', #44 ) ;
#16 = DIRECTION ( 'NONE',  ( -3.195627101123639800E-032, -1.661601616157370100E-016, 1.000000000000000000 ) ) ;
#17 = CARTESIAN_POINT ( 'NONE',  ( 4.406613230356580100, 2.213727114042198800, -0.004777825402868204400 ) ) ;
#18 = CARTESIAN_POINT ( 'NONE',  ( 3.131409653530020600E-016, -6.423682679036189400, 1.019343628782892800 ) ) ;
#19 = EDGE_LOOP ( 'NONE', ( #91, #117, #154, #81 ) ) ;
#20 = ORIENTED_EDGE ( 'NONE', *, *, #167, .F. ) ;
#21 = CARTESIAN_POINT ( 'NONE',  ( 2.498001805406600200E-016, -6.349999999999998800, 0.9955068402148048400 ) ) ;
#22 =( NAMED_UNIT ( * ) PLANE_ANGLE_UNIT ( ) SI_UNIT ( $, .RADIAN. ) );
#23 = COORDINATED_UNIVERSAL_TIME_OFFSET ( 2, 0, .AHEAD. ) ;
#24 = DIRECTION ( 'NONE',  ( 0.0000000000000000000, 0.0000000000000000000, 1.000000000000000000 ) ) ;
#25 = CARTESIAN_POINT ( 'NONE',  ( -8.673617379884035500E-016, 6.423682679036192100, 1.019343628782889400 ) ) ;
#26 = CIRCLE ( 'NONE', #123, 6.349999999999999600 ) ;
#27 = VERTEX_POINT ( 'NONE', #64 ) ;
#28 = ORIENTED_EDGE ( 'NONE', *, *, #58, .F. ) ;
#29 = APPLICATION_PROTOCOL_DEFINITION ( 'international standard', 'config_control_design', 1994, #209 ) ;
#30 = VECTOR ( 'NONE', #124, 1000.000000000000000 ) ;
#31 = PRODUCT_RELATED_PRODUCT_CATEGORY ( 'detail', '', ( #97 ) ) ;
#32 = PERSON ( 'UNSPECIFIED', 'UNSPECIFIED', 'UNSPECIFIED', ('UNSPECIFIED'), ('UNSPECIFIED'), ('UNSPECIFIED') ) ;
#33 = COORDINATED_UNIVERSAL_TIME_OFFSET ( 2, 0, .AHEAD. ) ;
#34 = EDGE_LOOP ( 'NONE', ( #140, #59 ) ) ;
#35 = DIRECTION ( 'NONE',  ( 3.195627101123639800E-032, 1.661601616157370100E-016, -1.000000000000000000 ) ) ;
#36 = CARTESIAN_POINT ( 'NONE',  ( 4.120382622920347500, -6.423682679036189400, 1.343344270551612300 ) ) ;
#37 = CARTESIAN_POINT ( 'NONE',  ( -2.602085213965210600E-015, -6.423682679036189400, 1.019343628782896700 ) ) ;
#38 = CARTESIAN_POINT ( 'NONE',  ( 0.0000000000000000000, 13.15799999999999900, 3.000000000000000000 ) ) ;
#39 = FACE_OUTER_BOUND ( 'NONE', #106, .T. ) ;
#40 = COORDINATED_UNIVERSAL_TIME_OFFSET ( 2, 0, .AHEAD. ) ;
#41 = FACE_OUTER_BOUND ( 'NONE', #19, .T. ) ;
#42 = EDGE_CURVE ( 'NONE', #65, #15, #161, .T. ) ;
#43 = UNCERTAINTY_MEASURE_WITH_UNIT (LENGTH_MEASURE( 1.000000000000000100E-005 ), #160, 'distance_accuracy_value', 'NONE');
#44 = CARTESIAN_POINT ( 'NONE',  ( 1.027450897999229200E-015, 6.350000000000000500, 0.9955068402148069500 ) ) ;
#45 = DATE_AND_TIME ( #202, #90 ) ;
#46 = ORIENTED_EDGE ( 'NONE', *, *, #112, .F. ) ;
#47 = CARTESIAN_POINT ( 'NONE',  ( 2.072929984718649100, 6.423682679036196500, 1.019343628782885400 ) ) ;
#48 = CARTESIAN_POINT ( 'NONE',  ( 3.552713678800500100E-015, 8.881784197001250700E-015, 20.75000000000000000 ) ) ;
#49 = DIRECTION ( 'NONE',  ( 0.0000000000000000000, -1.000000000000000000, -1.707404996040164500E-016 ) ) ;
#50 = ORIENTED_EDGE ( 'NONE', *, *, #116, .T. ) ;
#51 = CARTESIAN_POINT ( 'NONE',  ( -6.515224474060540100, 2.213727114042195200, 0.6797206482087256900 ) ) ;
#52 = DIRECTION ( 'NONE',  ( 0.0000000000000000000, -1.000000000000000000, -1.365923996832131600E-016 ) ) ;
#53 = DIRECTION ( 'NONE',  ( 0.0000000000000000000, -1.000000000000000000, -1.707404996040164500E-016 ) ) ;
#54 = PERSON_AND_ORGANIZATION ( #32, #186 ) ;
#55 = PERSON_AND_ORGANIZATION_ROLE ( 'design_owner' ) ;
#56 = CC_DESIGN_PERSON_AND_ORGANIZATION_ASSIGNMENT ( #75, #92, ( #139 ) ) ;
#57 = APPLICATION_PROTOCOL_DEFINITION ( 'international standard', 'config_control_design', 1994, #163 ) ;
#58 = EDGE_CURVE ( 'NONE', #65, #15, #148, .T. ) ;
#59 = ORIENTED_EDGE ( 'NONE', *, *, #42, .T. ) ;
#60 = ORIENTED_EDGE ( 'NONE', *, *, #42, .F. ) ;
#61 = DATE_AND_TIME ( #174, #130 ) ;
#62 = APPROVAL_DATE_TIME ( #93, #155 ) ;
#63 = DIRECTION ( 'NONE',  ( 1.000000000000000000, 0.0000000000000000000, 0.0000000000000000000 ) ) ;
#64 = CARTESIAN_POINT ( 'NONE',  ( 1.027450897999229200E-015, 6.350000000000000500, 3.000000000000000900 ) ) ;
#65 = VERTEX_POINT ( 'NONE', #21 ) ;
#66 = CARTESIAN_POINT ( 'NONE',  ( 4.406613230356577500, -2.213727114042193900, -0.004777825402863433900 ) ) ;
#67 = CC_DESIGN_APPROVAL ( #190, ( #149 ) ) ;
#68 = DIRECTION ( 'NONE',  ( 1.000000000000000000, 0.0000000000000000000, -0.0000000000000000000 ) ) ;
#69 = PERSON_AND_ORGANIZATION ( #32, #186 ) ;
#70 = CARTESIAN_POINT ( 'NONE',  ( -2.216930205814196900, 2.213727114042196100, -0.3512858187916260100 ) ) ;
#71 = DIRECTION ( 'NONE',  ( 3.195627101123639800E-032, 1.661601616157370100E-016, -1.000000000000000000 ) ) ;
#72 = DIRECTION ( 'NONE',  ( 0.0000000000000000000, -1.000000000000000000, -1.707404996040164500E-016 ) ) ;
#73 = CALENDAR_DATE ( 2018, 21, 12 ) ;
#74 = PERSON_AND_ORGANIZATION_ROLE ( 'design_supplier' ) ;
#75 = PERSON_AND_ORGANIZATION ( #32, #186 ) ;
#76 = ADVANCED_FACE ( 'NONE', ( #145 ), #198, .T. ) ;
#77 = CC_DESIGN_DATE_AND_TIME_ASSIGNMENT ( #115, #178, ( #139 ) ) ;
#78 = ADVANCED_FACE ( 'NONE', ( #101 ), #114, .T. ) ;
#79 = DIRECTION ( 'NONE',  ( -3.195627101123639800E-032, -1.661601616157370100E-016, 1.000000000000000000 ) ) ;
#80 = CARTESIAN_POINT ( 'NONE',  ( 6.515224474060541800, -2.213727114042194400, 0.6797206482087248000 ) ) ;
#81 = ORIENTED_EDGE ( 'NONE', *, *, #116, .F. ) ;
#82 = DIRECTION ( 'NONE',  ( 0.0000000000000000000, -1.000000000000000000, -1.707404996040164500E-016 ) ) ;
#83 = CARTESIAN_POINT ( 'NONE',  ( 2.216930205814196900, 2.213727114042198800, -0.3512858187916320700 ) ) ;
#84 = CARTESIAN_POINT ( 'NONE',  ( 6.092029480239218300, 6.423682679036195600, 1.983381294144998400 ) ) ;
#85 = APPROVAL_PERSON_ORGANIZATION ( #69, #196, #110 ) ;
#86 = CARTESIAN_POINT ( 'NONE',  ( 2.498001805406600200E-016, 1.221245327087670000E-015, 0.9955068402148058400 ) ) ;
#87 = CARTESIAN_POINT ( 'NONE',  ( -2.216930205814197800, -2.213727114042196100, -0.3512858187916218500 ) ) ;
#88 = CARTESIAN_POINT ( 'NONE',  ( -2.072929984718647800, -6.423682679036189400, 1.019343628782897400 ) ) ;
#89 = DIRECTION ( 'NONE',  ( 1.000000000000000000, 0.0000000000000000000, 0.0000000000000000000 ) ) ;
#90 = LOCAL_TIME ( 8, 30, 50.00000000000000000, #23 ) ;
#91 = ORIENTED_EDGE ( 'NONE', *, *, #132, .F. ) ;
#92 = PERSON_AND_ORGANIZATION_ROLE ( 'classification_officer' ) ;
#93 = DATE_AND_TIME ( #107, #138 ) ;
#94 = EDGE_LOOP ( 'NONE', ( #189, #20 ) ) ;
#95 = ADVANCED_FACE ( 'NONE', ( #41 ), #13, .T. ) ;
#96 = CC_DESIGN_SECURITY_CLASSIFICATION ( #139, ( #149 ) ) ;
#97 = PRODUCT ( '110-0107E BK7 pl-cx 12.7 F40', '110-0107E BK7 pl-cx 12.7 F40', '', ( #109 ) ) ;
#98 = CARTESIAN_POINT ( 'NONE',  ( 2.072929984718647300, -6.423682679036189400, 1.019343628782892300 ) ) ;
#99 = CC_DESIGN_PERSON_AND_ORGANIZATION_ASSIGNMENT ( #54, #55, ( #97 ) ) ;
#100 = ADVANCED_BREP_SHAPE_REPRESENTATION ( '110-0107E BK7 pl-cx 12.7 F40', ( #134, #146 ), #10 ) ;
#101 = FACE_OUTER_BOUND ( 'NONE', #34, .T. ) ;
#102 = CARTESIAN_POINT ( 'NONE',  ( -4.406613230356576600, -2.213727114042196100, -0.004777825402857904500 ) ) ;
#103 = CIRCLE ( 'NONE', #143, 6.349999999999999600 ) ;
#104 = CARTESIAN_POINT ( 'NONE',  ( -4.406613230356576600, 2.213727114042196100, -0.004777825402862349700 ) ) ;
#105 = APPROVAL_PERSON_ORGANIZATION ( #7, #190, #133 ) ;
#106 = EDGE_LOOP ( 'NONE', ( #60, #177 ) ) ;
#107 = CALENDAR_DATE ( 2018, 21, 12 ) ;
#108 = PERSON_AND_ORGANIZATION_ROLE ( 'creator' ) ;
#109 = MECHANICAL_CONTEXT ( 'NONE', #209, 'mechanical' ) ;
#110 = APPROVAL_ROLE ( '' ) ;
#111 = APPROVAL_PERSON_ORGANIZATION ( #179, #155, #173 ) ;
#112 = EDGE_CURVE ( 'NONE', #15, #27, #188, .T. ) ;
#113 = APPROVAL_DATE_TIME ( #162, #190 ) ;
#114 =( BOUNDED_SURFACE ( )  B_SPLINE_SURFACE ( 3, 3, ( 
 ( #18, #98, #36, #169 ),
 ( #199, #152, #66, #80 ),
 ( #197, #83, #17, #136 ),
 ( #153, #47, #2, #84 ) ),
 .UNSPECIFIED., .F., .F., .F. ) 
 B_SPLINE_SURFACE_WITH_KNOTS ( ( 4, 4 ),
 ( 4, 4 ),
 ( 0.0000000000000000000, 1.000000000000000000 ),
 ( 0.0000000000000000000, 1.000000000000000000 ),
 .UNSPECIFIED. ) 
 GEOMETRIC_REPRESENTATION_ITEM ( )  RATIONAL_B_SPLINE_SURFACE ( (
 ( 1.000000000000000000, 0.9918063331597429800, 0.9918063331597429800, 1.000000000000000000),
 ( 0.9672500038945256500, 0.9593246796113765700, 0.9593246796113765700, 0.9672500038945256500),
 ( 0.9672500038945256500, 0.9593246796113765700, 0.9593246796113765700, 0.9672500038945256500),
 ( 1.000000000000000000, 0.9918063331597429800, 0.9918063331597429800, 1.000000000000000000) ) ) 
 REPRESENTATION_ITEM ( '' )  SURFACE ( )  );
#115 = DATE_AND_TIME ( #165, #207 ) ;
#116 = EDGE_CURVE ( 'NONE', #65, #213, #151, .T. ) ;
#117 = ORIENTED_EDGE ( 'NONE', *, *, #112, .T. ) ;
#118 = AXIS2_PLACEMENT_3D ( 'NONE', #181, #16, #49 ) ;
#119 = DIRECTION ( 'NONE',  ( 0.0000000000000000000, -1.000000000000000000, -6.688090509790100000E-016 ) ) ;
#120 = CARTESIAN_POINT ( 'NONE',  ( -4.120382622920349300, 6.423682679036192100, 1.343344270551609700 ) ) ;
#121 = CC_DESIGN_PERSON_AND_ORGANIZATION_ASSIGNMENT ( #172, #164, ( #149 ) ) ;
#122 = CARTESIAN_POINT ( 'NONE',  ( 1.027450897999229200E-015, 6.350000000000000500, 0.9955068402148069500 ) ) ;
#123 = AXIS2_PLACEMENT_3D ( 'NONE', #184, #4, #52 ) ;
#124 = DIRECTION ( 'NONE',  ( -3.195627101123640300E-032, -1.661601616157370100E-016, 1.000000000000000000 ) ) ;
#125 = LOCAL_TIME ( 8, 30, 50.00000000000000000, #33 ) ;
#126 =( BOUNDED_SURFACE ( )  B_SPLINE_SURFACE ( 3, 3, ( 
 ( #201, #156, #88, #37 ),
 ( #187, #102, #87, #205 ),
 ( #51, #104, #70, #5 ),
 ( #170, #120, #6, #25 ) ),
 .UNSPECIFIED., .F., .F., .T. ) 
 B_SPLINE_SURFACE_WITH_KNOTS ( ( 4, 4 ),
 ( 4, 4 ),
 ( 0.0000000000000000000, 1.000000000000000000 ),
 ( 0.0000000000000000000, 1.000000000000000000 ),
 .UNSPECIFIED. ) 
 GEOMETRIC_REPRESENTATION_ITEM ( )  RATIONAL_B_SPLINE_SURFACE ( (
 ( 1.000000000000000000, 0.9918063331597429800, 0.9918063331597429800, 1.000000000000000000),
 ( 0.9672500038945256500, 0.9593246796113765700, 0.9593246796113765700, 0.9672500038945256500),
 ( 0.9672500038945256500, 0.9593246796113765700, 0.9593246796113765700, 0.9672500038945256500),
 ( 1.000000000000000000, 0.9918063331597429800, 0.9918063331597429800, 1.000000000000000000) ) ) 
 REPRESENTATION_ITEM ( '' )  SURFACE ( )  );
#127 = AXIS2_PLACEMENT_3D ( 'NONE', #38, #24, #68 ) ;
#128 = DATE_TIME_ROLE ( 'creation_date' ) ;
#129 = CC_DESIGN_APPROVAL ( #196, ( #139 ) ) ;
#130 = LOCAL_TIME ( 8, 30, 50.00000000000000000, #40 ) ;
#131 = COORDINATED_UNIVERSAL_TIME_OFFSET ( 2, 0, .AHEAD. ) ;
#132 = EDGE_CURVE ( 'NONE', #15, #65, #103, .T. ) ;
#133 = APPROVAL_ROLE ( '' ) ;
#134 = MANIFOLD_SOLID_BREP ( 'Imported1', #193 ) ;
#135 = VECTOR ( 'NONE', #206, 1000.000000000000000 ) ;
#136 = CARTESIAN_POINT ( 'NONE',  ( 6.515224474060545400, 2.213727114042197900, 0.6797206482087202500 ) ) ;
#137 =( NAMED_UNIT ( * ) SI_UNIT ( $, .STERADIAN. ) SOLID_ANGLE_UNIT ( ) );
#138 = LOCAL_TIME ( 8, 30, 50.00000000000000000, #142 ) ;
#139 = SECURITY_CLASSIFICATION ( '', '', #194 ) ;
#140 = ORIENTED_EDGE ( 'NONE', *, *, #132, .T. ) ;
#141 = AXIS2_PLACEMENT_3D ( 'NONE', #48, #63, #119 ) ;
#142 = COORDINATED_UNIVERSAL_TIME_OFFSET ( 2, 0, .AHEAD. ) ;
#143 = AXIS2_PLACEMENT_3D ( 'NONE', #86, #71, #53 ) ;
#144 = CC_DESIGN_PERSON_AND_ORGANIZATION_ASSIGNMENT ( #1, #108, ( #210 ) ) ;
#145 = FACE_OUTER_BOUND ( 'NONE', #8, .T. ) ;
#146 = AXIS2_PLACEMENT_3D ( 'NONE', #208, #214, #89 ) ;
#147 = APPROVAL_STATUS ( 'not_yet_approved' ) ;
#148 = CIRCLE ( 'NONE', #166, 6.349999999999999600 ) ;
#149 = PRODUCT_DEFINITION_FORMATION_WITH_SPECIFIED_SOURCE ( 'ANY', '', #97, .NOT_KNOWN. ) ;
#150 = ADVANCED_FACE ( 'NONE', ( #39 ), #126, .T. ) ;
#151 = LINE ( 'NONE', #183, #30 ) ;
#152 = CARTESIAN_POINT ( 'NONE',  ( 2.216930205814196400, -2.213727114042193500, -0.3512858187916273500 ) ) ;
#153 = CARTESIAN_POINT ( 'NONE',  ( 3.131409653529997900E-016, 6.423682679036196500, 1.019343628782885900 ) ) ;
#154 = ORIENTED_EDGE ( 'NONE', *, *, #167, .T. ) ;
#155 = APPROVAL ( #12, 'UNSPECIFIED' ) ;
#156 = CARTESIAN_POINT ( 'NONE',  ( -4.120382622920347500, -6.423682679036189400, 1.343344270551617000 ) ) ;
#157 = CARTESIAN_POINT ( 'NONE',  ( 2.498001805406599800E-016, 8.881784197001227700E-016, 3.000000000000000000 ) ) ;
#158 = DIRECTION ( 'NONE',  ( 3.195627101123639800E-032, 1.661601616157370100E-016, -1.000000000000000000 ) ) ;
#159 = CC_DESIGN_PERSON_AND_ORGANIZATION_ASSIGNMENT ( #175, #74, ( #149 ) ) ;
#160 =( LENGTH_UNIT ( ) NAMED_UNIT ( * ) SI_UNIT ( .MILLI., .METRE. ) );
#161 = CIRCLE ( 'NONE', #141, 20.75000000000000000 ) ;
#162 = DATE_AND_TIME ( #73, #125 ) ;
#163 = APPLICATION_CONTEXT ( 'configuration controlled 3d designs of mechanical parts and assemblies' ) ;
#164 = PERSON_AND_ORGANIZATION_ROLE ( 'creator' ) ;
#165 = CALENDAR_DATE ( 2018, 21, 12 ) ;
#166 = AXIS2_PLACEMENT_3D ( 'NONE', #168, #35, #82 ) ;
#167 = EDGE_CURVE ( 'NONE', #27, #213, #26, .T. ) ;
#168 = CARTESIAN_POINT ( 'NONE',  ( 2.498001805406600200E-016, 1.221245327087670000E-015, 0.9955068402148058400 ) ) ;
#169 = CARTESIAN_POINT ( 'NONE',  ( 6.092029480239213900, -6.423682679036190300, 1.983381294145005100 ) ) ;
#170 = CARTESIAN_POINT ( 'NONE',  ( -6.092029480239214800, 6.423682679036191200, 1.983381294145002900 ) ) ;
#171 = PRODUCT_DEFINITION_SHAPE ( 'NONE', 'NONE',  #210 ) ;
#172 = PERSON_AND_ORGANIZATION ( #32, #186 ) ;
#173 = APPROVAL_ROLE ( '' ) ;
#174 = CALENDAR_DATE ( 2018, 21, 12 ) ;
#175 = PERSON_AND_ORGANIZATION ( #32, #186 ) ;
#176 = AXIS2_PLACEMENT_3D ( 'NONE', #157, #158, #9 ) ;
#177 = ORIENTED_EDGE ( 'NONE', *, *, #58, .T. ) ;
#178 = DATE_TIME_ROLE ( 'classification_date' ) ;
#179 = PERSON_AND_ORGANIZATION ( #32, #186 ) ;
#180 = CARTESIAN_POINT ( 'NONE',  ( 2.498001805406600200E-016, 1.221245327087670000E-015, 0.9955068402148058400 ) ) ;
#181 = CARTESIAN_POINT ( 'NONE',  ( 2.498001805406600200E-016, 1.221245327087670000E-015, 0.9955068402148058400 ) ) ;
#182 = SHAPE_DEFINITION_REPRESENTATION ( #171, #100 ) ;
#183 = CARTESIAN_POINT ( 'NONE',  ( 2.498001805406600200E-016, -6.349999999999998800, 0.9955068402148048400 ) ) ;
#184 = CARTESIAN_POINT ( 'NONE',  ( 2.498001805406599800E-016, 8.881784197001227700E-016, 3.000000000000000000 ) ) ;
#185 = CC_DESIGN_DATE_AND_TIME_ASSIGNMENT ( #45, #128, ( #210 ) ) ;
#186 = ORGANIZATION ( 'UNSPECIFIED', 'UNSPECIFIED', '' ) ;
#187 = CARTESIAN_POINT ( 'NONE',  ( -6.515224474060539200, -2.213727114042196100, 0.6797206482087301300 ) ) ;
#188 = LINE ( 'NONE', #122, #135 ) ;
#189 = ORIENTED_EDGE ( 'NONE', *, *, #191, .F. ) ;
#190 = APPROVAL ( #211, 'UNSPECIFIED' ) ;
#191 = EDGE_CURVE ( 'NONE', #213, #27, #212, .T. ) ;
#192 = DESIGN_CONTEXT ( 'detailed design', #163, 'design' ) ;
#193 = CLOSED_SHELL ( 'NONE', ( #78, #95, #150, #76, #215 ) ) ;
#194 = SECURITY_CLASSIFICATION_LEVEL ( 'unclassified' ) ;
#195 = FACE_OUTER_BOUND ( 'NONE', #94, .T. ) ;
#196 = APPROVAL ( #147, 'UNSPECIFIED' ) ;
#197 = CARTESIAN_POINT ( 'NONE',  ( 8.809757728368978800E-017, 2.213727114042198800, -0.3512858187916317900 ) ) ;
#198 = CYLINDRICAL_SURFACE ( 'NONE', #118, 6.349999999999999600 ) ;
#199 = CARTESIAN_POINT ( 'NONE',  ( 8.809757728369077400E-017, -2.213727114042193500, -0.3512858187916270100 ) ) ;
#200 = CARTESIAN_POINT ( 'NONE',  ( 2.498001805406599800E-016, -6.349999999999998800, 2.999999999999999100 ) ) ;
#201 = CARTESIAN_POINT ( 'NONE',  ( -6.092029480239211200, -6.423682679036190300, 1.983381294145009700 ) ) ;
#202 = CALENDAR_DATE ( 2018, 21, 12 ) ;
#203 = AXIS2_PLACEMENT_3D ( 'NONE', #180, #79, #72 ) ;
#204 = PLANE ( 'NONE',  #127 ) ;
#205 = CARTESIAN_POINT ( 'NONE',  ( -3.469446951953614200E-015, -2.213727114042195700, -0.3512858187916226300 ) ) ;
#206 = DIRECTION ( 'NONE',  ( -3.195627101123640300E-032, -1.661601616157370100E-016, 1.000000000000000000 ) ) ;
#207 = LOCAL_TIME ( 8, 30, 50.00000000000000000, #131 ) ;
#208 = CARTESIAN_POINT ( 'NONE',  ( 0.0000000000000000000, 0.0000000000000000000, 0.0000000000000000000 ) ) ;
#209 = APPLICATION_CONTEXT ( 'configuration controlled 3d designs of mechanical parts and assemblies' ) ;
#210 = PRODUCT_DEFINITION ( 'UNKNOWN', '', #149, #192 ) ;
#211 = APPROVAL_STATUS ( 'not_yet_approved' ) ;
#212 = CIRCLE ( 'NONE', #176, 6.349999999999999600 ) ;
#213 = VERTEX_POINT ( 'NONE', #200 ) ;
#214 = DIRECTION ( 'NONE',  ( 0.0000000000000000000, 0.0000000000000000000, 1.000000000000000000 ) ) ;
#215 = ADVANCED_FACE ( 'NONE', ( #195 ), #204, .T. ) ;
ENDSEC;
END-ISO-10303-21;
