ISO-10303-21;
HEADER;
FILE_DESCRIPTION (( 'STEP AP203' ),
    '1' );
FILE_NAME ('110-0105E BK7 pl-cx 12.7 F25.STEP',
    '2018-12-21T06:31:05',
    ( '' ),
    ( '' ),
    'SwSTEP 2.0',
    'SolidWorks 2017',
    '' );
FILE_SCHEMA (( 'CONFIG_CONTROL_DESIGN' ));
ENDSEC;

DATA;
#1 = DIRECTION ( 'NONE',  ( 1.000000000000000000, 1.776356839400250500E-015, 0.0000000000000000000 ) ) ;
#2 =( NAMED_UNIT ( * ) PLANE_ANGLE_UNIT ( ) SI_UNIT ( $, .RADIAN. ) );
#3 = CC_DESIGN_SECURITY_CLASSIFICATION ( #157, ( #103 ) ) ;
#4 = APPROVAL_STATUS ( 'not_yet_approved' ) ;
#5 = DATE_AND_TIME ( #172, #204 ) ;
#6 = ORIENTED_EDGE ( 'NONE', *, *, #137, .T. ) ;
#7 = COORDINATED_UNIVERSAL_TIME_OFFSET ( 2, 0, .AHEAD. ) ;
#8 = CIRCLE ( 'NONE', #58, 6.349999999999999600 ) ;
#9 = EDGE_CURVE ( 'NONE', #159, #30, #96, .T. ) ;
#10 = LINE ( 'NONE', #212, #215 ) ;
#11 = LOCAL_TIME ( 8, 31, 5.000000000000000000, #200 ) ;
#12 = ORIENTED_EDGE ( 'NONE', *, *, #192, .T. ) ;
#13 = CARTESIAN_POINT ( 'NONE',  ( 2.498001805406600200E-016, 1.221245327087670000E-015, 4.000000000000000000 ) ) ;
#14 = CARTESIAN_POINT ( 'NONE',  ( -2.664535259100380000E-015, 6.419312293552762200, 1.699980937112733200 ) ) ;
#15 = DIRECTION ( 'NONE',  ( 0.0000000000000000000, 0.0000000000000000000, 1.000000000000000000 ) ) ;
#16 = PRODUCT ( '110-0105E BK7 pl-cx 12.7 F25', '110-0105E BK7 pl-cx 12.7 F25', '', ( #216 ) ) ;
#17 = CARTESIAN_POINT ( 'NONE',  ( 5.547843909813770400, -6.419312293552758700, 3.160068418679741000 ) ) ;
#18 = PERSON_AND_ORGANIZATION ( #75, #95 ) ;
#19 = CARTESIAN_POINT ( 'NONE',  ( -5.547843909813775700, -6.419312293552758700, 3.160068418679742300 ) ) ;
#20 = FACE_OUTER_BOUND ( 'NONE', #156, .T. ) ;
#21 = DIRECTION ( 'NONE',  ( 1.000000000000000000, 0.0000000000000000000, 0.0000000000000000000 ) ) ;
#22 = CARTESIAN_POINT ( 'NONE',  ( -6.938893903907228400E-015, -2.344646326553703600, -0.6209160541100124900 ) ) ;
#23 = APPLICATION_PROTOCOL_DEFINITION ( 'international standard', 'config_control_design', 1994, #90 ) ;
#24 = CARTESIAN_POINT ( 'NONE',  ( 0.0000000000000000000, 0.0000000000000000000, 0.0000000000000000000 ) ) ;
#25 = APPROVAL_ROLE ( '' ) ;
#26 = PERSON_AND_ORGANIZATION ( #75, #95 ) ;
#27 = FACE_OUTER_BOUND ( 'NONE', #134, .T. ) ;
#28 = PERSON_AND_ORGANIZATION ( #75, #95 ) ;
#29 = AXIS2_PLACEMENT_3D ( 'NONE', #87, #113, #131 ) ;
#30 = VERTEX_POINT ( 'NONE', #231 ) ;
#31 = UNCERTAINTY_MEASURE_WITH_UNIT (LENGTH_MEASURE( 1.000000000000000100E-005 ), #185, 'distance_accuracy_value', 'NONE');
#32 = CARTESIAN_POINT ( 'NONE',  ( 6.690341909702828700, 2.344646326553708500, 1.139855270490592900 ) ) ;
#33 = CARTESIAN_POINT ( 'NONE',  ( 2.498001805406600200E-016, 1.221245327087670000E-015, 1.660782520439360000 ) ) ;
#34 = DIRECTION ( 'NONE',  ( 1.000000000000000000, 0.0000000000000000000, 0.0000000000000000000 ) ) ;
#35 = CC_DESIGN_DATE_AND_TIME_ASSIGNMENT ( #108, #97, ( #157 ) ) ;
#36 = CARTESIAN_POINT ( 'NONE',  ( 2.498001805406600200E-016, 1.221245327087670000E-015, 1.660782520439360000 ) ) ;
#37 = DIRECTION ( 'NONE',  ( -0.0000000000000000000, -0.0000000000000000000, -1.000000000000000000 ) ) ;
#38 = CARTESIAN_POINT ( 'NONE',  ( -5.204170427930421300E-015, -6.419312293552757800, 1.699980937112734800 ) ) ;
#39 = ORIENTED_EDGE ( 'NONE', *, *, #192, .F. ) ;
#40 = CARTESIAN_POINT ( 'NONE',  ( 2.498001805406600200E-016, 1.221245327087670000E-015, 1.660782520439360000 ) ) ;
#41 = CARTESIAN_POINT ( 'NONE',  ( -4.637990960122826900, 2.344646326553707200, -0.02081772932002885800 ) ) ;
#42 = EDGE_CURVE ( 'NONE', #191, #46, #138, .T. ) ;
#43 = DESIGN_CONTEXT ( 'detailed design', #90, 'design' ) ;
#44 = ORIENTED_EDGE ( 'NONE', *, *, #209, .F. ) ;
#45 = AXIS2_PLACEMENT_3D ( 'NONE', #150, #15, #69 ) ;
#46 = VERTEX_POINT ( 'NONE', #175 ) ;
#47 = CC_DESIGN_APPROVAL ( #199, ( #103 ) ) ;
#48 = CARTESIAN_POINT ( 'NONE',  ( 2.498001805406600200E-016, 1.221245327087670000E-015, 1.660782520439360000 ) ) ;
#49 = EDGE_LOOP ( 'NONE', ( #122, #144, #6 ) ) ;
#50 = PLANE ( 'NONE',  #45 ) ;
#51 = CARTESIAN_POINT ( 'NONE',  ( 6.349999999999999600, 1.221245327087670000E-015, 4.000000000000000000 ) ) ;
#52 = CARTESIAN_POINT ( 'NONE',  ( -2.664535259100380000E-015, -6.350000000000001400, 1.660782520439359800 ) ) ;
#53 = APPROVAL_DATE_TIME ( #65, #199 ) ;
#54 = ORIENTED_EDGE ( 'NONE', *, *, #100, .T. ) ;
#55 = PERSON_AND_ORGANIZATION_ROLE ( 'design_owner' ) ;
#56 = CARTESIAN_POINT ( 'NONE',  ( -4.637990960122826000, -2.344646326553704500, -0.02081772932002951300 ) ) ;
#57 = CARTESIAN_POINT ( 'NONE',  ( 2.498001805406600200E-016, 1.221245327087670000E-015, 4.000000000000000000 ) ) ;
#58 = AXIS2_PLACEMENT_3D ( 'NONE', #13, #126, #164 ) ;
#59 = APPROVAL_PERSON_ORGANIZATION ( #174, #143, #136 ) ;
#60 = SECURITY_CLASSIFICATION_LEVEL ( 'unclassified' ) ;
#61 = CC_DESIGN_PERSON_AND_ORGANIZATION_ASSIGNMENT ( #141, #79, ( #157 ) ) ;
#62 = SHAPE_DEFINITION_REPRESENTATION ( #119, #78 ) ;
#63 = EDGE_CURVE ( 'NONE', #159, #191, #230, .T. ) ;
#64 = CC_DESIGN_PERSON_AND_ORGANIZATION_ASSIGNMENT ( #188, #99, ( #103 ) ) ;
#65 = DATE_AND_TIME ( #161, #167 ) ;
#66 = FACE_OUTER_BOUND ( 'NONE', #225, .T. ) ;
#67 = CARTESIAN_POINT ( 'NONE',  ( -2.664535259100380000E-015, -6.419312293552757800, 1.699980937112733200 ) ) ;
#68 = ADVANCED_FACE ( 'NONE', ( #140 ), #211, .T. ) ;
#69 = DIRECTION ( 'NONE',  ( 1.000000000000000000, 0.0000000000000000000, -0.0000000000000000000 ) ) ;
#70 = ORIENTED_EDGE ( 'NONE', *, *, #42, .F. ) ;
#71 = AXIS2_PLACEMENT_3D ( 'NONE', #36, #195, #128 ) ;
#72 = CC_DESIGN_PERSON_AND_ORGANIZATION_ASSIGNMENT ( #28, #219, ( #85 ) ) ;
#73 = APPROVAL_STATUS ( 'not_yet_approved' ) ;
#74 = CALENDAR_DATE ( 2018, 21, 12 ) ;
#75 = PERSON ( 'UNSPECIFIED', 'UNSPECIFIED', 'UNSPECIFIED', ('UNSPECIFIED'), ('UNSPECIFIED'), ('UNSPECIFIED') ) ;
#76 = CARTESIAN_POINT ( 'NONE',  ( -6.349999999999999600, 1.998896044546239400E-015, 1.660782520439360000 ) ) ;
#77 = ORIENTED_EDGE ( 'NONE', *, *, #63, .F. ) ;
#78 = ADVANCED_BREP_SHAPE_REPRESENTATION ( '110-0105E BK7 pl-cx 12.7 F25', ( #145, #82 ), #115 ) ;
#79 = PERSON_AND_ORGANIZATION_ROLE ( 'classification_officer' ) ;
#80 = ORIENTED_EDGE ( 'NONE', *, *, #118, .T. ) ;
#81 = VECTOR ( 'NONE', #180, 1000.000000000000000 ) ;
#82 = AXIS2_PLACEMENT_3D ( 'NONE', #24, #170, #154 ) ;
#83 = CYLINDRICAL_SURFACE ( 'NONE', #158, 6.349999999999999600 ) ;
#84 = CALENDAR_DATE ( 2018, 21, 12 ) ;
#85 = PRODUCT_DEFINITION ( 'UNKNOWN', '', #103, #43 ) ;
#86 = DIRECTION ( 'NONE',  ( 1.000000000000000000, 0.0000000000000000000, 0.0000000000000000000 ) ) ;
#87 = CARTESIAN_POINT ( 'NONE',  ( -2.664535259100380000E-015, 1.776356839400250100E-015, 12.97000000000000100 ) ) ;
#88 = CARTESIAN_POINT ( 'NONE',  ( -5.547843909813779300, 6.419312293552761300, 3.160068418679744100 ) ) ;
#89 = ADVANCED_FACE ( 'NONE', ( #27 ), #50, .T. ) ;
#90 = APPLICATION_CONTEXT ( 'configuration controlled 3d designs of mechanical parts and assemblies' ) ;
#91 = ORIENTED_EDGE ( 'NONE', *, *, #63, .T. ) ;
#92 = DIRECTION ( 'NONE',  ( 0.0000000000000000000, 0.0000000000000000000, 1.000000000000000000 ) ) ;
#93 = CARTESIAN_POINT ( 'NONE',  ( -6.938893903907228400E-015, 2.344646326553708500, -0.6209160541100119400 ) ) ;
#94 = AXIS2_PLACEMENT_3D ( 'NONE', #235, #116, #1 ) ;
#95 = ORGANIZATION ( 'UNSPECIFIED', 'UNSPECIFIED', '' ) ;
#96 = CIRCLE ( 'NONE', #29, 12.97000000000000100 ) ;
#97 = DATE_TIME_ROLE ( 'classification_date' ) ;
#98 = CC_DESIGN_APPROVAL ( #143, ( #85 ) ) ;
#99 = PERSON_AND_ORGANIZATION_ROLE ( 'creator' ) ;
#100 = EDGE_CURVE ( 'NONE', #191, #30, #121, .T. ) ;
#101 = APPROVAL ( #4, 'UNSPECIFIED' ) ;
#102 = ORIENTED_EDGE ( 'NONE', *, *, #124, .T. ) ;
#103 = PRODUCT_DEFINITION_FORMATION_WITH_SPECIFIED_SOURCE ( 'ANY', '', #16, .NOT_KNOWN. ) ;
#104 = VERTEX_POINT ( 'NONE', #51 ) ;
#105 = CARTESIAN_POINT ( 'NONE',  ( 3.845969346435335300, 6.419312293552761300, 2.197601519350425000 ) ) ;
#106 = ADVANCED_FACE ( 'NONE', ( #20 ), #223, .T. ) ;
#107 = CARTESIAN_POINT ( 'NONE',  ( 1.955177629214064300, 6.419312293552761300, 1.699980937112733200 ) ) ;
#108 = DATE_AND_TIME ( #84, #160 ) ;
#109 = DIRECTION ( 'NONE',  ( 0.0000000000000000000, 0.0000000000000000000, 1.000000000000000000 ) ) ;
#110 = DIRECTION ( 'NONE',  ( -0.0000000000000000000, -0.0000000000000000000, -1.000000000000000000 ) ) ;
#111 = CARTESIAN_POINT ( 'NONE',  ( 1.955177629214063000, -6.419312293552756900, 1.699980937112733200 ) ) ;
#112 = DIRECTION ( 'NONE',  ( 1.000000000000000000, 0.0000000000000000000, 0.0000000000000000000 ) ) ;
#113 = DIRECTION ( 'NONE',  ( 1.000000000000000000, 0.0000000000000000000, 0.0000000000000000000 ) ) ;
#114 = DATE_AND_TIME ( #117, #163 ) ;
#115 =( GEOMETRIC_REPRESENTATION_CONTEXT ( 3 ) GLOBAL_UNCERTAINTY_ASSIGNED_CONTEXT ( ( #31 ) ) GLOBAL_UNIT_ASSIGNED_CONTEXT ( ( #185, #2, #153 ) ) REPRESENTATION_CONTEXT ( 'NONE', 'WORKASPACE' ) );
#116 = DIRECTION ( 'NONE',  ( -0.0000000000000000000, -0.0000000000000000000, -1.000000000000000000 ) ) ;
#117 = CALENDAR_DATE ( 2018, 21, 12 ) ;
#118 = EDGE_CURVE ( 'NONE', #46, #104, #8, .T. ) ;
#119 = PRODUCT_DEFINITION_SHAPE ( 'NONE', 'NONE',  #85 ) ;
#120 = PERSON_AND_ORGANIZATION ( #75, #95 ) ;
#121 = CIRCLE ( 'NONE', #71, 6.349999999999999600 ) ;
#122 = ORIENTED_EDGE ( 'NONE', *, *, #209, .T. ) ;
#123 = CARTESIAN_POINT ( 'NONE',  ( 6.349999999999999600, 1.221245327087670000E-015, 1.660782520439360000 ) ) ;
#124 = EDGE_CURVE ( 'NONE', #148, #104, #10, .T. ) ;
#125 = APPROVAL_DATE_TIME ( #114, #101 ) ;
#126 = DIRECTION ( 'NONE',  ( -0.0000000000000000000, -0.0000000000000000000, -1.000000000000000000 ) ) ;
#127 = CC_DESIGN_APPROVAL ( #101, ( #157 ) ) ;
#128 = DIRECTION ( 'NONE',  ( 1.000000000000000000, -8.881784197001252300E-016, 0.0000000000000000000 ) ) ;
#129 = CIRCLE ( 'NONE', #189, 6.349999999999999600 ) ;
#130 = AXIS2_PLACEMENT_3D ( 'NONE', #33, #109, #34 ) ;
#131 = DIRECTION ( 'NONE',  ( 0.0000000000000000000, -1.000000000000000000, -5.349956749350214300E-016 ) ) ;
#132 = CARTESIAN_POINT ( 'NONE',  ( -6.690341909702834900, 2.344646326553708100, 1.139855270490595300 ) ) ;
#133 = CARTESIAN_POINT ( 'NONE',  ( -2.357818108491700900, -2.344646326553703600, -0.6209160541100117200 ) ) ;
#134 = EDGE_LOOP ( 'NONE', ( #39, #208 ) ) ;
#135 = CARTESIAN_POINT ( 'NONE',  ( -1.955177629214069700, -6.419312293552756900, 1.699980937112735500 ) ) ;
#136 = APPROVAL_ROLE ( '' ) ;
#137 = EDGE_CURVE ( 'NONE', #30, #148, #173, .T. ) ;
#138 = LINE ( 'NONE', #149, #81 ) ;
#139 = APPROVAL_ROLE ( '' ) ;
#140 = FACE_OUTER_BOUND ( 'NONE', #49, .T. ) ;
#141 = PERSON_AND_ORGANIZATION ( #75, #95 ) ;
#142 = ORIENTED_EDGE ( 'NONE', *, *, #137, .F. ) ;
#143 = APPROVAL ( #73, 'UNSPECIFIED' ) ;
#144 = ORIENTED_EDGE ( 'NONE', *, *, #9, .T. ) ;
#145 = MANIFOLD_SOLID_BREP ( 'Imported1', #168 ) ;
#146 = CARTESIAN_POINT ( 'NONE',  ( 2.357818108491692900, 2.344646326553708500, -0.6209160541100147100 ) ) ;
#147 = AXIS2_PLACEMENT_3D ( 'NONE', #48, #110, #86 ) ;
#148 = VERTEX_POINT ( 'NONE', #123 ) ;
#149 = CARTESIAN_POINT ( 'NONE',  ( -6.349999999999999600, 1.998896044546239400E-015, 1.660782520439360000 ) ) ;
#150 = CARTESIAN_POINT ( 'NONE',  ( 0.0000000000000000000, 13.15799999999999900, 4.000000000000000000 ) ) ;
#151 = CARTESIAN_POINT ( 'NONE',  ( -1.955177629214071500, 6.419312293552761300, 1.699980937112736600 ) ) ;
#152 = APPLICATION_PROTOCOL_DEFINITION ( 'international standard', 'config_control_design', 1994, #233 ) ;
#153 =( NAMED_UNIT ( * ) SI_UNIT ( $, .STERADIAN. ) SOLID_ANGLE_UNIT ( ) );
#154 = DIRECTION ( 'NONE',  ( 1.000000000000000000, 0.0000000000000000000, 0.0000000000000000000 ) ) ;
#155 = COORDINATED_UNIVERSAL_TIME_OFFSET ( 2, 0, .AHEAD. ) ;
#156 = EDGE_LOOP ( 'NONE', ( #70, #77, #44, #102, #12 ) ) ;
#157 = SECURITY_CLASSIFICATION ( '', '', #60 ) ;
#158 = AXIS2_PLACEMENT_3D ( 'NONE', #187, #92, #21 ) ;
#159 = VERTEX_POINT ( 'NONE', #52 ) ;
#160 = LOCAL_TIME ( 8, 31, 5.000000000000000000, #7 ) ;
#161 = CALENDAR_DATE ( 2018, 21, 12 ) ;
#162 = CARTESIAN_POINT ( 'NONE',  ( 4.637990960122818900, -2.344646326553704500, -0.02081772932003146300 ) ) ;
#163 = LOCAL_TIME ( 8, 31, 5.000000000000000000, #155 ) ;
#164 = DIRECTION ( 'NONE',  ( 1.000000000000000000, 0.0000000000000000000, 0.0000000000000000000 ) ) ;
#165 = CARTESIAN_POINT ( 'NONE',  ( -2.664535259100380000E-015, -2.344646326553703600, -0.6209160541100143800 ) ) ;
#166 = CC_DESIGN_DATE_AND_TIME_ASSIGNMENT ( #5, #202, ( #85 ) ) ;
#167 = LOCAL_TIME ( 8, 31, 5.000000000000000000, #177 ) ;
#168 = CLOSED_SHELL ( 'NONE', ( #68, #194, #217, #106, #89 ) ) ;
#169 = CARTESIAN_POINT ( 'NONE',  ( -3.845969346435342400, 6.419312293552761300, 2.197601519350428100 ) ) ;
#170 = DIRECTION ( 'NONE',  ( 0.0000000000000000000, 0.0000000000000000000, 1.000000000000000000 ) ) ;
#171 = CARTESIAN_POINT ( 'NONE',  ( -6.690341909702832300, -2.344646326553705000, 1.139855270490594200 ) ) ;
#172 = CALENDAR_DATE ( 2018, 21, 12 ) ;
#173 = CIRCLE ( 'NONE', #94, 6.349999999999999600 ) ;
#174 = PERSON_AND_ORGANIZATION ( #75, #95 ) ;
#175 = CARTESIAN_POINT ( 'NONE',  ( -6.349999999999999600, 1.998896044546239400E-015, 4.000000000000000000 ) ) ;
#176 = CARTESIAN_POINT ( 'NONE',  ( 5.547843909813774000, 6.419312293552761300, 3.160068418679741900 ) ) ;
#177 = COORDINATED_UNIVERSAL_TIME_OFFSET ( 2, 0, .AHEAD. ) ;
#178 = CARTESIAN_POINT ( 'NONE',  ( 2.357818108491692900, -2.344646326553703600, -0.6209160541100140500 ) ) ;
#179 = ORIENTED_EDGE ( 'NONE', *, *, #124, .F. ) ;
#180 = DIRECTION ( 'NONE',  ( 0.0000000000000000000, 0.0000000000000000000, 1.000000000000000000 ) ) ;
#181 = PRODUCT_RELATED_PRODUCT_CATEGORY ( 'detail', '', ( #16 ) ) ;
#182 = CARTESIAN_POINT ( 'NONE',  ( -2.357818108491701400, 2.344646326553708100, -0.6209160541100111600 ) ) ;
#183 = CC_DESIGN_PERSON_AND_ORGANIZATION_ASSIGNMENT ( #120, #190, ( #103 ) ) ;
#184 = ORIENTED_EDGE ( 'NONE', *, *, #42, .T. ) ;
#185 =( LENGTH_UNIT ( ) NAMED_UNIT ( * ) SI_UNIT ( .MILLI., .METRE. ) );
#186 = DIRECTION ( 'NONE',  ( -0.0000000000000000000, -0.0000000000000000000, -1.000000000000000000 ) ) ;
#187 = CARTESIAN_POINT ( 'NONE',  ( 2.498001805406600200E-016, 1.221245327087670000E-015, 1.660782520439360000 ) ) ;
#188 = PERSON_AND_ORGANIZATION ( #75, #95 ) ;
#189 = AXIS2_PLACEMENT_3D ( 'NONE', #40, #186, #201 ) ;
#190 = PERSON_AND_ORGANIZATION_ROLE ( 'design_supplier' ) ;
#191 = VERTEX_POINT ( 'NONE', #76 ) ;
#192 = EDGE_CURVE ( 'NONE', #104, #46, #193, .T. ) ;
#193 = CIRCLE ( 'NONE', #232, 6.349999999999999600 ) ;
#194 = ADVANCED_FACE ( 'NONE', ( #205 ), #83, .T. ) ;
#195 = DIRECTION ( 'NONE',  ( -0.0000000000000000000, -0.0000000000000000000, -1.000000000000000000 ) ) ;
#196 = PERSON_AND_ORGANIZATION ( #75, #95 ) ;
#197 = DIRECTION ( 'NONE',  ( 0.0000000000000000000, 0.0000000000000000000, 1.000000000000000000 ) ) ;
#198 = CARTESIAN_POINT ( 'NONE',  ( 4.637990960122818900, 2.344646326553708100, -0.02081772932003168200 ) ) ;
#199 = APPROVAL ( #203, 'UNSPECIFIED' ) ;
#200 = COORDINATED_UNIVERSAL_TIME_OFFSET ( 2, 0, .AHEAD. ) ;
#201 = DIRECTION ( 'NONE',  ( 1.000000000000000000, 0.0000000000000000000, 0.0000000000000000000 ) ) ;
#202 = DATE_TIME_ROLE ( 'creation_date' ) ;
#203 = APPROVAL_STATUS ( 'not_yet_approved' ) ;
#204 = LOCAL_TIME ( 8, 31, 5.000000000000000000, #214 ) ;
#205 = FACE_OUTER_BOUND ( 'NONE', #226, .T. ) ;
#206 = APPROVAL_PERSON_ORGANIZATION ( #18, #199, #25 ) ;
#207 = DATE_AND_TIME ( #74, #11 ) ;
#208 = ORIENTED_EDGE ( 'NONE', *, *, #118, .F. ) ;
#209 = EDGE_CURVE ( 'NONE', #148, #159, #129, .T. ) ;
#210 = CARTESIAN_POINT ( 'NONE',  ( 3.845969346435332200, -6.419312293552756900, 2.197601519350424600 ) ) ;
#211 =( BOUNDED_SURFACE ( )  B_SPLINE_SURFACE ( 3, 3, ( 
 ( #67, #111, #210, #17 ),
 ( #165, #178, #162, #227 ),
 ( #229, #146, #198, #32 ),
 ( #14, #107, #105, #176 ) ),
 .UNSPECIFIED., .F., .F., .F. ) 
 B_SPLINE_SURFACE_WITH_KNOTS ( ( 4, 4 ),
 ( 4, 4 ),
 ( 0.0000000000000000000, 1.000000000000000000 ),
 ( 0.0000000000000000000, 1.000000000000000000 ),
 .UNSPECIFIED. ) 
 GEOMETRIC_REPRESENTATION_ITEM ( )  RATIONAL_B_SPLINE_SURFACE ( (
 ( 1.000000000000000000, 0.9780460144965011900, 0.9780460144965011900, 1.000000000000000000),
 ( 0.9126198438903762000, 0.8925842010674015500, 0.8925842010674015500, 0.9126198438903762000),
 ( 0.9126198438903762000, 0.8925842010674015500, 0.8925842010674015500, 0.9126198438903762000),
 ( 1.000000000000000000, 0.9780460144965011900, 0.9780460144965011900, 1.000000000000000000) ) ) 
 REPRESENTATION_ITEM ( '' )  SURFACE ( )  );
#212 = CARTESIAN_POINT ( 'NONE',  ( 6.349999999999999600, 1.221245327087670000E-015, 1.660782520439360000 ) ) ;
#213 = CC_DESIGN_PERSON_AND_ORGANIZATION_ASSIGNMENT ( #26, #55, ( #16 ) ) ;
#214 = COORDINATED_UNIVERSAL_TIME_OFFSET ( 2, 0, .AHEAD. ) ;
#215 = VECTOR ( 'NONE', #197, 1000.000000000000000 ) ;
#216 = MECHANICAL_CONTEXT ( 'NONE', #233, 'mechanical' ) ;
#217 = ADVANCED_FACE ( 'NONE', ( #66 ), #224, .T. ) ;
#218 = CARTESIAN_POINT ( 'NONE',  ( -3.845969346435339300, -6.419312293552756900, 2.197601519350426800 ) ) ;
#219 = PERSON_AND_ORGANIZATION_ROLE ( 'creator' ) ;
#220 = CARTESIAN_POINT ( 'NONE',  ( -6.071532165918824800E-015, 6.419312293552762200, 1.699980937112735700 ) ) ;
#221 = APPROVAL_PERSON_ORGANIZATION ( #196, #101, #139 ) ;
#222 = ORIENTED_EDGE ( 'NONE', *, *, #100, .F. ) ;
#223 = CYLINDRICAL_SURFACE ( 'NONE', #130, 6.349999999999999600 ) ;
#224 =( BOUNDED_SURFACE ( )  B_SPLINE_SURFACE ( 3, 3, ( 
 ( #19, #218, #135, #38 ),
 ( #171, #56, #133, #22 ),
 ( #132, #41, #182, #93 ),
 ( #88, #169, #151, #220 ) ),
 .UNSPECIFIED., .F., .F., .F. ) 
 B_SPLINE_SURFACE_WITH_KNOTS ( ( 4, 4 ),
 ( 4, 4 ),
 ( 0.0000000000000000000, 1.000000000000000000 ),
 ( 0.0000000000000000000, 1.000000000000000000 ),
 .UNSPECIFIED. ) 
 GEOMETRIC_REPRESENTATION_ITEM ( )  RATIONAL_B_SPLINE_SURFACE ( (
 ( 1.000000000000000000, 0.9780460144965011900, 0.9780460144965011900, 1.000000000000000000),
 ( 0.9126198438903762000, 0.8925842010674015500, 0.8925842010674015500, 0.9126198438903762000),
 ( 0.9126198438903762000, 0.8925842010674015500, 0.8925842010674015500, 0.9126198438903762000),
 ( 1.000000000000000000, 0.9780460144965011900, 0.9780460144965011900, 1.000000000000000000) ) ) 
 REPRESENTATION_ITEM ( '' )  SURFACE ( )  );
#225 = EDGE_LOOP ( 'NONE', ( #234, #91, #54 ) ) ;
#226 = EDGE_LOOP ( 'NONE', ( #222, #184, #80, #179, #142 ) ) ;
#227 = CARTESIAN_POINT ( 'NONE',  ( 6.690341909702828700, -2.344646326553705000, 1.139855270490592900 ) ) ;
#228 = APPROVAL_DATE_TIME ( #207, #143 ) ;
#229 = CARTESIAN_POINT ( 'NONE',  ( -2.664535259100380000E-015, 2.344646326553708500, -0.6209160541100147100 ) ) ;
#230 = CIRCLE ( 'NONE', #147, 6.349999999999999600 ) ;
#231 = CARTESIAN_POINT ( 'NONE',  ( -2.664535259100380000E-015, 6.350000000000005000, 1.660782520439358900 ) ) ;
#232 = AXIS2_PLACEMENT_3D ( 'NONE', #57, #37, #112 ) ;
#233 = APPLICATION_CONTEXT ( 'configuration controlled 3d designs of mechanical parts and assemblies' ) ;
#234 = ORIENTED_EDGE ( 'NONE', *, *, #9, .F. ) ;
#235 = CARTESIAN_POINT ( 'NONE',  ( 2.498001805406600200E-016, 1.221245327087670000E-015, 1.660782520439360000 ) ) ;
ENDSEC;
END-ISO-10303-21;
