ISO-10303-21;
HEADER;
FILE_DESCRIPTION (( 'STEP AP203' ),
    '1' );
FILE_NAME ('110-0104E BK7 pl-cx 12.7 F20.STEP',
    '2018-12-21T06:31:23',
    ( '' ),
    ( '' ),
    'SwSTEP 2.0',
    'SolidWorks 2017',
    '' );
FILE_SCHEMA (( 'CONFIG_CONTROL_DESIGN' ));
ENDSEC;

DATA;
#1 = APPROVAL ( #65, 'UNSPECIFIED' ) ;
#2 = LOCAL_TIME ( 8, 31, 23.00000000000000000, #146 ) ;
#3 =( BOUNDED_SURFACE ( )  B_SPLINE_SURFACE ( 3, 3, ( 
 ( #183, #75, #201, #126 ),
 ( #59, #43, #92, #203 ),
 ( #107, #142, #90, #163 ),
 ( #80, #226, #167, #144 ) ),
 .UNSPECIFIED., .F., .F., .T. ) 
 B_SPLINE_SURFACE_WITH_KNOTS ( ( 4, 4 ),
 ( 4, 4 ),
 ( 0.0000000000000000000, 1.000000000000000000 ),
 ( 0.0000000000000000000, 1.000000000000000000 ),
 .UNSPECIFIED. ) 
 GEOMETRIC_REPRESENTATION_ITEM ( )  RATIONAL_B_SPLINE_SURFACE ( (
 ( 1.000000000000000000, 0.9637061554289653200, 0.9637061554289653200, 1.000000000000000000),
 ( 0.8571498308900893400, 0.8260405681536757700, 0.8260405681536757700, 0.8571498308900893400),
 ( 0.8571498308900893400, 0.8260405681536757700, 0.8260405681536757700, 0.8571498308900893400),
 ( 1.000000000000000000, 0.9637061554289653200, 0.9637061554289653200, 1.000000000000000000) ) ) 
 REPRESENTATION_ITEM ( '' )  SURFACE ( )  );
#4 = CARTESIAN_POINT ( 'NONE',  ( 2.498001805406600200E-016, 1.221245327087670000E-015, 4.500000000000000900 ) ) ;
#5 = CC_DESIGN_PERSON_AND_ORGANIZATION_ASSIGNMENT ( #50, #33, ( #231 ) ) ;
#6 = VERTEX_POINT ( 'NONE', #141 ) ;
#7 = CARTESIAN_POINT ( 'NONE',  ( -6.914201647894078200, 2.494560408749172200, 1.515667135748996800 ) ) ;
#8 = CARTESIAN_POINT ( 'NONE',  ( 0.0000000000000000000, 0.0000000000000000000, 0.0000000000000000000 ) ) ;
#9 = CARTESIAN_POINT ( 'NONE',  ( -3.568963440767587000, 6.414636097513397100, 2.819044905334439300 ) ) ;
#10 = ORIENTED_EDGE ( 'NONE', *, *, #115, .T. ) ;
#11 = APPROVAL_PERSON_ORGANIZATION ( #77, #208, #207 ) ;
#12 = MECHANICAL_CONTEXT ( 'NONE', #35, 'mechanical' ) ;
#13 = AXIS2_PLACEMENT_3D ( 'NONE', #24, #158, #57 ) ;
#14 = PERSON_AND_ORGANIZATION_ROLE ( 'creator' ) ;
#15 = CIRCLE ( 'NONE', #192, 6.349999999999999600 ) ;
#16 = EDGE_CURVE ( 'NONE', #157, #55, #191, .T. ) ;
#17 = DATE_AND_TIME ( #137, #174 ) ;
#18 = DIRECTION ( 'NONE',  ( 1.000000000000000000, 0.0000000000000000000, 0.0000000000000000000 ) ) ;
#19 = CC_DESIGN_SECURITY_CLASSIFICATION ( #231, ( #160 ) ) ;
#20 = CALENDAR_DATE ( 2018, 21, 12 ) ;
#21 = VECTOR ( 'NONE', #42, 1000.000000000000000 ) ;
#22 = DIRECTION ( 'NONE',  ( -0.0000000000000000000, -0.0000000000000000000, -1.000000000000000000 ) ) ;
#23 = AXIS2_PLACEMENT_3D ( 'NONE', #4, #102, #18 ) ;
#24 = CARTESIAN_POINT ( 'NONE',  ( 2.498001805406600200E-016, 1.221245327087670000E-015, 2.171561124213950300 ) ) ;
#25 = COORDINATED_UNIVERSAL_TIME_OFFSET ( 2, 0, .AHEAD. ) ;
#26 = CARTESIAN_POINT ( 'NONE',  ( 0.0000000000000000000, -6.414636097513399800, 2.222034380504660500 ) ) ;
#27 = EDGE_CURVE ( 'NONE', #196, #179, #175, .T. ) ;
#28 = PLANE ( 'NONE',  #155 ) ;
#29 = DATE_AND_TIME ( #20, #152 ) ;
#30 = ORIENTED_EDGE ( 'NONE', *, *, #68, .T. ) ;
#31 = CARTESIAN_POINT ( 'NONE',  ( -8.673617379884035500E-016, -2.494560408749174400, -0.8641174508145741400 ) ) ;
#32 = ORIENTED_EDGE ( 'NONE', *, *, #56, .F. ) ;
#33 = PERSON_AND_ORGANIZATION_ROLE ( 'classification_officer' ) ;
#34 = VERTEX_POINT ( 'NONE', #220 ) ;
#35 = APPLICATION_CONTEXT ( 'configuration controlled 3d designs of mechanical parts and assemblies' ) ;
#36 = APPROVAL_DATE_TIME ( #29, #208 ) ;
#37 = ADVANCED_FACE ( 'NONE', ( #199 ), #219, .T. ) ;
#38 = CIRCLE ( 'NONE', #53, 6.349999999999999600 ) ;
#39 = AXIS2_PLACEMENT_3D ( 'NONE', #135, #82, #150 ) ;
#40 = ORIENTED_EDGE ( 'NONE', *, *, #27, .F. ) ;
#41 = ADVANCED_BREP_SHAPE_REPRESENTATION ( '110-0104E BK7 pl-cx 12.7 F20', ( #49, #222 ), #202 ) ;
#42 = DIRECTION ( 'NONE',  ( 0.0000000000000000000, 0.0000000000000000000, 1.000000000000000000 ) ) ;
#43 = CARTESIAN_POINT ( 'NONE',  ( 2.529224696837685500, -2.494560408749173500, -0.8641174508145710300 ) ) ;
#44 = CARTESIAN_POINT ( 'NONE',  ( -4.920756461627005000, 2.494560408749173100, -0.04098114065846994400 ) ) ;
#45 = FACE_OUTER_BOUND ( 'NONE', #71, .T. ) ;
#46 = DIRECTION ( 'NONE',  ( 1.000000000000000000, 0.0000000000000000000, -0.0000000000000000000 ) ) ;
#47 = CARTESIAN_POINT ( 'NONE',  ( -2.529224696837690800, 2.494560408749173100, -0.8641174508145750300 ) ) ;
#48 = APPROVAL_STATUS ( 'not_yet_approved' ) ;
#49 = MANIFOLD_SOLID_BREP ( 'Imported1', #213 ) ;
#50 = PERSON_AND_ORGANIZATION ( #164, #235 ) ;
#51 = FACE_OUTER_BOUND ( 'NONE', #83, .T. ) ;
#52 = CYLINDRICAL_SURFACE ( 'NONE', #182, 6.349999999999999600 ) ;
#53 = AXIS2_PLACEMENT_3D ( 'NONE', #169, #63, #205 ) ;
#54 = CARTESIAN_POINT ( 'NONE',  ( 2.498001805406600200E-016, 1.221245327087670000E-015, 2.171561124213950300 ) ) ;
#55 = VERTEX_POINT ( 'NONE', #122 ) ;
#56 = EDGE_CURVE ( 'NONE', #34, #55, #138, .T. ) ;
#57 = DIRECTION ( 'NONE',  ( 1.000000000000000000, 0.0000000000000000000, 0.0000000000000000000 ) ) ;
#58 = PERSON_AND_ORGANIZATION ( #164, #235 ) ;
#59 = CARTESIAN_POINT ( 'NONE',  ( -8.881784197001250400E-016, -2.494560408749173100, -0.8641174508145711400 ) ) ;
#60 = DIRECTION ( 'NONE',  ( 0.0000000000000000000, 0.0000000000000000000, 1.000000000000000000 ) ) ;
#61 = APPROVAL_DATE_TIME ( #166, #1 ) ;
#62 =( BOUNDED_SURFACE ( )  B_SPLINE_SURFACE ( 3, 3, ( 
 ( #94, #228, #109, #26 ),
 ( #76, #128, #185, #31 ),
 ( #7, #44, #47, #186 ),
 ( #165, #9, #106, #223 ) ),
 .UNSPECIFIED., .F., .F., .T. ) 
 B_SPLINE_SURFACE_WITH_KNOTS ( ( 4, 4 ),
 ( 4, 4 ),
 ( 0.0000000000000000000, 1.000000000000000000 ),
 ( 0.0000000000000000000, 1.000000000000000000 ),
 .UNSPECIFIED. ) 
 GEOMETRIC_REPRESENTATION_ITEM ( )  RATIONAL_B_SPLINE_SURFACE ( (
 ( 1.000000000000000000, 0.9637061554289653200, 0.9637061554289653200, 1.000000000000000000),
 ( 0.8571498308900891100, 0.8260405681536755500, 0.8260405681536755500, 0.8571498308900891100),
 ( 0.8571498308900891100, 0.8260405681536755500, 0.8260405681536755500, 0.8571498308900891100),
 ( 1.000000000000000000, 0.9637061554289653200, 0.9637061554289653200, 1.000000000000000000) ) ) 
 REPRESENTATION_ITEM ( '' )  SURFACE ( )  );
#63 = DIRECTION ( 'NONE',  ( -0.0000000000000000000, -0.0000000000000000000, -1.000000000000000000 ) ) ;
#64 =( LENGTH_UNIT ( ) NAMED_UNIT ( * ) SI_UNIT ( .MILLI., .METRE. ) );
#65 = APPROVAL_STATUS ( 'not_yet_approved' ) ;
#66 = UNCERTAINTY_MEASURE_WITH_UNIT (LENGTH_MEASURE( 1.000000000000000100E-005 ), #64, 'distance_accuracy_value', 'NONE');
#67 = APPROVAL_DATE_TIME ( #97, #168 ) ;
#68 = EDGE_CURVE ( 'NONE', #6, #196, #91, .T. ) ;
#69 = DATE_AND_TIME ( #210, #100 ) ;
#70 = CARTESIAN_POINT ( 'NONE',  ( 2.498001805406600200E-016, 1.221245327087670000E-015, 2.171561124213950300 ) ) ;
#71 = EDGE_LOOP ( 'NONE', ( #98, #118, #30 ) ) ;
#72 = CARTESIAN_POINT ( 'NONE',  ( 6.349999999999999600, 1.221245327087670000E-015, 2.171561124213950300 ) ) ;
#73 = CARTESIAN_POINT ( 'NONE',  ( -6.349999999999999600, 1.998896044546239400E-015, 2.171561124213950300 ) ) ;
#74 = ORIENTED_EDGE ( 'NONE', *, *, #195, .F. ) ;
#75 = CARTESIAN_POINT ( 'NONE',  ( 1.834415205648193700, -6.414636097513396300, 2.222034380504661800 ) ) ;
#76 = CARTESIAN_POINT ( 'NONE',  ( -6.914201647894077300, -2.494560408749174800, 1.515667135748996800 ) ) ;
#77 = PERSON_AND_ORGANIZATION ( #164, #235 ) ;
#78 = CIRCLE ( 'NONE', #13, 6.349999999999999600 ) ;
#79 = CARTESIAN_POINT ( 'NONE',  ( 2.498001805406600200E-016, 1.221245327087670000E-015, 4.500000000000000900 ) ) ;
#80 = CARTESIAN_POINT ( 'NONE',  ( -8.881784197001248400E-016, 6.414636097513398900, 2.222034380504661800 ) ) ;
#81 = ORIENTED_EDGE ( 'NONE', *, *, #105, .T. ) ;
#82 = DIRECTION ( 'NONE',  ( 1.000000000000000000, 0.0000000000000000000, 0.0000000000000000000 ) ) ;
#83 = EDGE_LOOP ( 'NONE', ( #212, #225, #40, #81, #134 ) ) ;
#84 = AXIS2_PLACEMENT_3D ( 'NONE', #70, #218, #198 ) ;
#85 = PERSON_AND_ORGANIZATION_ROLE ( 'design_owner' ) ;
#86 = CALENDAR_DATE ( 2018, 21, 12 ) ;
#87 = EDGE_LOOP ( 'NONE', ( #151, #10, #180 ) ) ;
#88 = CC_DESIGN_APPROVAL ( #1, ( #216 ) ) ;
#89 = CC_DESIGN_PERSON_AND_ORGANIZATION_ASSIGNMENT ( #189, #113, ( #216 ) ) ;
#90 = CARTESIAN_POINT ( 'NONE',  ( 4.920756461626998800, 2.494560408749174000, -0.04098114065846885500 ) ) ;
#91 = CIRCLE ( 'NONE', #111, 6.349999999999999600 ) ;
#92 = CARTESIAN_POINT ( 'NONE',  ( 4.920756461626998800, -2.494560408749174000, -0.04098114065846885500 ) ) ;
#93 = DIRECTION ( 'NONE',  ( -0.0000000000000000000, -0.0000000000000000000, -1.000000000000000000 ) ) ;
#94 = CARTESIAN_POINT ( 'NONE',  ( -5.014784433219008800, -6.414636097513399800, 3.948062533407666700 ) ) ;
#95 = FACE_OUTER_BOUND ( 'NONE', #119, .T. ) ;
#96 = DATE_TIME_ROLE ( 'creation_date' ) ;
#97 = DATE_AND_TIME ( #117, #200 ) ;
#98 = ORIENTED_EDGE ( 'NONE', *, *, #27, .T. ) ;
#99 = DIRECTION ( 'NONE',  ( 1.000000000000000000, 8.881784197001252300E-016, 0.0000000000000000000 ) ) ;
#100 = LOCAL_TIME ( 8, 31, 23.00000000000000000, #214 ) ;
#101 = PERSON_AND_ORGANIZATION ( #164, #235 ) ;
#102 = DIRECTION ( 'NONE',  ( -0.0000000000000000000, -0.0000000000000000000, -1.000000000000000000 ) ) ;
#103 = DIRECTION ( 'NONE',  ( 0.0000000000000000000, 0.0000000000000000000, 1.000000000000000000 ) ) ;
#104 = CARTESIAN_POINT ( 'NONE',  ( 2.498001805406600200E-016, 1.221245327087670000E-015, 2.171561124213950300 ) ) ;
#105 = EDGE_CURVE ( 'NONE', #196, #34, #121, .T. ) ;
#106 = CARTESIAN_POINT ( 'NONE',  ( -1.834415205648197500, 6.414636097513397100, 2.222034380504659600 ) ) ;
#107 = CARTESIAN_POINT ( 'NONE',  ( -8.881784197001250400E-016, 2.494560408749174800, -0.8641174508145711400 ) ) ;
#108 = CARTESIAN_POINT ( 'NONE',  ( 6.349999999999999600, 1.221245327087670000E-015, 2.171561124213950300 ) ) ;
#109 = CARTESIAN_POINT ( 'NONE',  ( -1.834415205648196400, -6.414636097513398900, 2.222034380504660500 ) ) ;
#110 = PRODUCT_DEFINITION_SHAPE ( 'NONE', 'NONE',  #216 ) ;
#111 = AXIS2_PLACEMENT_3D ( 'NONE', #54, #22, #99 ) ;
#112 = PERSON_AND_ORGANIZATION ( #164, #235 ) ;
#113 = PERSON_AND_ORGANIZATION_ROLE ( 'creator' ) ;
#114 = APPROVAL_ROLE ( '' ) ;
#115 = EDGE_CURVE ( 'NONE', #179, #157, #78, .T. ) ;
#116 = ADVANCED_FACE ( 'NONE', ( #51 ), #52, .T. ) ;
#117 = CALENDAR_DATE ( 2018, 21, 12 ) ;
#118 = ORIENTED_EDGE ( 'NONE', *, *, #197, .T. ) ;
#119 = EDGE_LOOP ( 'NONE', ( #32, #74 ) ) ;
#120 = PERSON_AND_ORGANIZATION ( #164, #235 ) ;
#121 = LINE ( 'NONE', #72, #156 ) ;
#122 = CARTESIAN_POINT ( 'NONE',  ( -6.349999999999999600, 1.998896044546239400E-015, 4.500000000000000900 ) ) ;
#123 = CC_DESIGN_APPROVAL ( #208, ( #231 ) ) ;
#124 = DIRECTION ( 'NONE',  ( 0.0000000000000000000, 0.0000000000000000000, 1.000000000000000000 ) ) ;
#125 = ORIENTED_EDGE ( 'NONE', *, *, #195, .T. ) ;
#126 = CARTESIAN_POINT ( 'NONE',  ( 5.014784433219004400, -6.414636097513398000, 3.948062533407664900 ) ) ;
#127 = CC_DESIGN_DATE_AND_TIME_ASSIGNMENT ( #69, #148, ( #231 ) ) ;
#128 = CARTESIAN_POINT ( 'NONE',  ( -4.920756461627003200, -2.494560408749174800, -0.04098114065846951400 ) ) ;
#129 = EDGE_CURVE ( 'NONE', #157, #6, #38, .T. ) ;
#130 = CARTESIAN_POINT ( 'NONE',  ( 0.0000000000000000000, 13.15799999999999900, 4.500000000000000900 ) ) ;
#131 = DIRECTION ( 'NONE',  ( 1.000000000000000000, 0.0000000000000000000, 0.0000000000000000000 ) ) ;
#132 = APPLICATION_PROTOCOL_DEFINITION ( 'international standard', 'config_control_design', 1994, #35 ) ;
#133 = ORIENTED_EDGE ( 'NONE', *, *, #68, .F. ) ;
#134 = ORIENTED_EDGE ( 'NONE', *, *, #56, .T. ) ;
#135 = CARTESIAN_POINT ( 'NONE',  ( -8.881784197001250400E-016, 8.881784197001250400E-016, 10.36999999999999900 ) ) ;
#136 = ADVANCED_FACE ( 'NONE', ( #140 ), #62, .T. ) ;
#137 = CALENDAR_DATE ( 2018, 21, 12 ) ;
#138 = CIRCLE ( 'NONE', #23, 6.349999999999999600 ) ;
#139 = AXIS2_PLACEMENT_3D ( 'NONE', #104, #103, #181 ) ;
#140 = FACE_OUTER_BOUND ( 'NONE', #87, .T. ) ;
#141 = CARTESIAN_POINT ( 'NONE',  ( -8.881784197001248400E-016, 6.349999999999997900, 2.171561124213950800 ) ) ;
#142 = CARTESIAN_POINT ( 'NONE',  ( 2.529224696837686800, 2.494560408749174800, -0.8641174508145710300 ) ) ;
#143 = DIRECTION ( 'NONE',  ( 0.0000000000000000000, 0.0000000000000000000, 1.000000000000000000 ) ) ;
#144 = CARTESIAN_POINT ( 'NONE',  ( 5.014784433219007000, 6.414636097513398000, 3.948062533407665800 ) ) ;
#145 = COORDINATED_UNIVERSAL_TIME_OFFSET ( 2, 0, .AHEAD. ) ;
#146 = COORDINATED_UNIVERSAL_TIME_OFFSET ( 2, 0, .AHEAD. ) ;
#147 = PRODUCT_RELATED_PRODUCT_CATEGORY ( 'detail', '', ( #159 ) ) ;
#148 = DATE_TIME_ROLE ( 'classification_date' ) ;
#149 = APPROVAL_ROLE ( '' ) ;
#150 = DIRECTION ( 'NONE',  ( 0.0000000000000000000, -1.000000000000000000, -3.345657620013129100E-016 ) ) ;
#151 = ORIENTED_EDGE ( 'NONE', *, *, #197, .F. ) ;
#152 = LOCAL_TIME ( 8, 31, 23.00000000000000000, #194 ) ;
#153 = ORIENTED_EDGE ( 'NONE', *, *, #105, .F. ) ;
#154 = CC_DESIGN_DATE_AND_TIME_ASSIGNMENT ( #17, #96, ( #216 ) ) ;
#155 = AXIS2_PLACEMENT_3D ( 'NONE', #130, #143, #46 ) ;
#156 = VECTOR ( 'NONE', #124, 1000.000000000000000 ) ;
#157 = VERTEX_POINT ( 'NONE', #162 ) ;
#158 = DIRECTION ( 'NONE',  ( -0.0000000000000000000, -0.0000000000000000000, -1.000000000000000000 ) ) ;
#159 = PRODUCT ( '110-0104E BK7 pl-cx 12.7 F20', '110-0104E BK7 pl-cx 12.7 F20', '', ( #12 ) ) ;
#160 = PRODUCT_DEFINITION_FORMATION_WITH_SPECIFIED_SOURCE ( 'ANY', '', #159, .NOT_KNOWN. ) ;
#161 = DIRECTION ( 'NONE',  ( 0.0000000000000000000, 0.0000000000000000000, 1.000000000000000000 ) ) ;
#162 = CARTESIAN_POINT ( 'NONE',  ( -6.349999999999999600, 1.998896044546239400E-015, 2.171561124213950300 ) ) ;
#163 = CARTESIAN_POINT ( 'NONE',  ( 6.914201647894072900, 2.494560408749174000, 1.515667135748996100 ) ) ;
#164 = PERSON ( 'UNSPECIFIED', 'UNSPECIFIED', 'UNSPECIFIED', ('UNSPECIFIED'), ('UNSPECIFIED'), ('UNSPECIFIED') ) ;
#165 = CARTESIAN_POINT ( 'NONE',  ( -5.014784433219012300, 6.414636097513398000, 3.948062533407666700 ) ) ;
#166 = DATE_AND_TIME ( #86, #2 ) ;
#167 = CARTESIAN_POINT ( 'NONE',  ( 3.568963440767583400, 6.414636097513397100, 2.819044905334440200 ) ) ;
#168 = APPROVAL ( #170, 'UNSPECIFIED' ) ;
#169 = CARTESIAN_POINT ( 'NONE',  ( 2.498001805406600200E-016, 1.221245327087670000E-015, 2.171561124213950300 ) ) ;
#170 = APPROVAL_STATUS ( 'not_yet_approved' ) ;
#171 = SHAPE_DEFINITION_REPRESENTATION ( #110, #41 ) ;
#172 =( NAMED_UNIT ( * ) PLANE_ANGLE_UNIT ( ) SI_UNIT ( $, .RADIAN. ) );
#173 = CC_DESIGN_PERSON_AND_ORGANIZATION_ASSIGNMENT ( #101, #85, ( #159 ) ) ;
#174 = LOCAL_TIME ( 8, 31, 23.00000000000000000, #25 ) ;
#175 = CIRCLE ( 'NONE', #84, 6.349999999999999600 ) ;
#176 = PERSON_AND_ORGANIZATION ( #164, #235 ) ;
#177 = CC_DESIGN_APPROVAL ( #168, ( #160 ) ) ;
#178 = DIRECTION ( 'NONE',  ( 1.000000000000000000, 0.0000000000000000000, 0.0000000000000000000 ) ) ;
#179 = VERTEX_POINT ( 'NONE', #221 ) ;
#180 = ORIENTED_EDGE ( 'NONE', *, *, #129, .T. ) ;
#181 = DIRECTION ( 'NONE',  ( 1.000000000000000000, 0.0000000000000000000, 0.0000000000000000000 ) ) ;
#182 = AXIS2_PLACEMENT_3D ( 'NONE', #217, #161, #178 ) ;
#183 = CARTESIAN_POINT ( 'NONE',  ( -8.881784197001248400E-016, -6.414636097513397100, 2.222034380504661800 ) ) ;
#184 = ORIENTED_EDGE ( 'NONE', *, *, #16, .T. ) ;
#185 = CARTESIAN_POINT ( 'NONE',  ( -2.529224696837689500, -2.494560408749174800, -0.8641174508145743600 ) ) ;
#186 = CARTESIAN_POINT ( 'NONE',  ( -8.673617379884035500E-016, 2.494560408749172200, -0.8641174508145750300 ) ) ;
#187 = APPLICATION_PROTOCOL_DEFINITION ( 'international standard', 'config_control_design', 1994, #232 ) ;
#188 = CC_DESIGN_PERSON_AND_ORGANIZATION_ASSIGNMENT ( #58, #233, ( #160 ) ) ;
#189 = PERSON_AND_ORGANIZATION ( #164, #235 ) ;
#190 = ADVANCED_FACE ( 'NONE', ( #45 ), #3, .T. ) ;
#191 = LINE ( 'NONE', #73, #21 ) ;
#192 = AXIS2_PLACEMENT_3D ( 'NONE', #79, #93, #131 ) ;
#193 = ADVANCED_FACE ( 'NONE', ( #95 ), #28, .T. ) ;
#194 = COORDINATED_UNIVERSAL_TIME_OFFSET ( 2, 0, .AHEAD. ) ;
#195 = EDGE_CURVE ( 'NONE', #55, #34, #15, .T. ) ;
#196 = VERTEX_POINT ( 'NONE', #108 ) ;
#197 = EDGE_CURVE ( 'NONE', #179, #6, #229, .T. ) ;
#198 = DIRECTION ( 'NONE',  ( 1.000000000000000000, 0.0000000000000000000, 0.0000000000000000000 ) ) ;
#199 = FACE_OUTER_BOUND ( 'NONE', #206, .T. ) ;
#200 = LOCAL_TIME ( 8, 31, 23.00000000000000000, #145 ) ;
#201 = CARTESIAN_POINT ( 'NONE',  ( 3.568963440767581200, -6.414636097513397100, 2.819044905334440200 ) ) ;
#202 =( GEOMETRIC_REPRESENTATION_CONTEXT ( 3 ) GLOBAL_UNCERTAINTY_ASSIGNED_CONTEXT ( ( #66 ) ) GLOBAL_UNIT_ASSIGNED_CONTEXT ( ( #64, #172, #234 ) ) REPRESENTATION_CONTEXT ( 'NONE', 'WORKASPACE' ) );
#203 = CARTESIAN_POINT ( 'NONE',  ( 6.914201647894070200, -2.494560408749174000, 1.515667135748995700 ) ) ;
#204 = CC_DESIGN_PERSON_AND_ORGANIZATION_ASSIGNMENT ( #120, #14, ( #160 ) ) ;
#205 = DIRECTION ( 'NONE',  ( 1.000000000000000000, 0.0000000000000000000, 0.0000000000000000000 ) ) ;
#206 = EDGE_LOOP ( 'NONE', ( #227, #184, #125, #153, #133 ) ) ;
#207 = APPROVAL_ROLE ( '' ) ;
#208 = APPROVAL ( #48, 'UNSPECIFIED' ) ;
#209 = DIRECTION ( 'NONE',  ( 1.000000000000000000, 0.0000000000000000000, 0.0000000000000000000 ) ) ;
#210 = CALENDAR_DATE ( 2018, 21, 12 ) ;
#211 = DESIGN_CONTEXT ( 'detailed design', #232, 'design' ) ;
#212 = ORIENTED_EDGE ( 'NONE', *, *, #16, .F. ) ;
#213 = CLOSED_SHELL ( 'NONE', ( #190, #37, #136, #116, #193 ) ) ;
#214 = COORDINATED_UNIVERSAL_TIME_OFFSET ( 2, 0, .AHEAD. ) ;
#215 = APPROVAL_PERSON_ORGANIZATION ( #176, #1, #114 ) ;
#216 = PRODUCT_DEFINITION ( 'UNKNOWN', '', #160, #211 ) ;
#217 = CARTESIAN_POINT ( 'NONE',  ( 2.498001805406600200E-016, 1.221245327087670000E-015, 2.171561124213950300 ) ) ;
#218 = DIRECTION ( 'NONE',  ( -0.0000000000000000000, -0.0000000000000000000, -1.000000000000000000 ) ) ;
#219 = CYLINDRICAL_SURFACE ( 'NONE', #139, 6.349999999999999600 ) ;
#220 = CARTESIAN_POINT ( 'NONE',  ( 6.349999999999999600, 1.221245327087670000E-015, 4.500000000000000900 ) ) ;
#221 = CARTESIAN_POINT ( 'NONE',  ( -8.881784197001248400E-016, -6.349999999999997000, 2.171561124213951600 ) ) ;
#222 = AXIS2_PLACEMENT_3D ( 'NONE', #8, #60, #209 ) ;
#223 = CARTESIAN_POINT ( 'NONE',  ( 0.0000000000000000000, 6.414636097513398000, 2.222034380504659600 ) ) ;
#224 = APPROVAL_PERSON_ORGANIZATION ( #112, #168, #149 ) ;
#225 = ORIENTED_EDGE ( 'NONE', *, *, #115, .F. ) ;
#226 = CARTESIAN_POINT ( 'NONE',  ( 1.834415205648194600, 6.414636097513398000, 2.222034380504661800 ) ) ;
#227 = ORIENTED_EDGE ( 'NONE', *, *, #129, .F. ) ;
#228 = CARTESIAN_POINT ( 'NONE',  ( -3.568963440767584300, -6.414636097513398900, 2.819044905334440600 ) ) ;
#229 = CIRCLE ( 'NONE', #39, 10.36999999999999700 ) ;
#230 = SECURITY_CLASSIFICATION_LEVEL ( 'unclassified' ) ;
#231 = SECURITY_CLASSIFICATION ( '', '', #230 ) ;
#232 = APPLICATION_CONTEXT ( 'configuration controlled 3d designs of mechanical parts and assemblies' ) ;
#233 = PERSON_AND_ORGANIZATION_ROLE ( 'design_supplier' ) ;
#234 =( NAMED_UNIT ( * ) SI_UNIT ( $, .STERADIAN. ) SOLID_ANGLE_UNIT ( ) );
#235 = ORGANIZATION ( 'UNSPECIFIED', 'UNSPECIFIED', '' ) ;
ENDSEC;
END-ISO-10303-21;
