ISO-10303-21;
HEADER;
FILE_DESCRIPTION (( 'STEP AP203' ),
    '1' );
FILE_NAME ('010-1845E_UVFS_PCV_window.STEP',
    '2021-02-26T06:29:19',
    ( '' ),
    ( '' ),
    'SwSTEP 2.0',
    'SolidWorks 2019',
    '' );
FILE_SCHEMA (( 'CONFIG_CONTROL_DESIGN' ));
ENDSEC;

DATA;
#1 = CIRCLE ( 'NONE', #113, 50.79999999999999716 ) ;
#2 = DATE_TIME_ROLE ( 'creation_date' ) ;
#3 = APPROVAL ( #64, 'UNSPECIFIED' ) ;
#4 = CC_DESIGN_APPROVAL ( #79, ( #57 ) ) ;
#5 = CALENDAR_DATE ( 2021, 26, 2 ) ;
#6 = VERTEX_POINT ( 'NONE', #195 ) ;
#7 = ORIENTED_EDGE ( 'NONE', *, *, #75, .T. ) ;
#8 = CIRCLE ( 'NONE', #77, 50.79999999999694182 ) ;
#9 = FACE_OUTER_BOUND ( 'NONE', #132, .T. ) ;
#10 = ADVANCED_FACE ( 'NONE', ( #55 ), #171, .F. ) ;
#11 =( NAMED_UNIT ( * ) SI_UNIT ( $, .STERADIAN. ) SOLID_ANGLE_UNIT ( ) );
#12 = AXIS2_PLACEMENT_3D ( 'NONE', #17, #38, #193 ) ;
#13 = CARTESIAN_POINT ( 'NONE',  ( 50.79999999999731131, 6.221205739668390436E-15, 15.00000000000012434 ) ) ;
#14 = CARTESIAN_POINT ( 'NONE',  ( 0.000000000000000000, 0.000000000000000000, 0.000000000000000000 ) ) ;
#15 = CARTESIAN_POINT ( 'NONE',  ( -50.79999999999999716, 0.000000000000000000, 15.00000000000000000 ) ) ;
#16 = PERSON_AND_ORGANIZATION ( #169, #87 ) ;
#17 = CARTESIAN_POINT ( 'NONE',  ( 0.000000000000000000, 0.000000000000000000, 0.000000000000000000 ) ) ;
#18 = AXIS2_PLACEMENT_3D ( 'NONE', #182, #59, #184 ) ;
#19 = CC_DESIGN_PERSON_AND_ORGANIZATION_ASSIGNMENT ( #124, #22, ( #144 ) ) ;
#20 = APPROVAL_ROLE ( '' ) ;
#21 = APPROVAL_PERSON_ORGANIZATION ( #16, #3, #32 ) ;
#22 = PERSON_AND_ORGANIZATION_ROLE ( 'design_supplier' ) ;
#23 = ORIENTED_EDGE ( 'NONE', *, *, #126, .F. ) ;
#24 = ORIENTED_EDGE ( 'NONE', *, *, #90, .F. ) ;
#25 = ORIENTED_EDGE ( 'NONE', *, *, #161, .F. ) ;
#26 =( LENGTH_UNIT ( ) NAMED_UNIT ( * ) SI_UNIT ( .MILLI., .METRE. ) );
#27 = CC_DESIGN_PERSON_AND_ORGANIZATION_ASSIGNMENT ( #128, #67, ( #135 ) ) ;
#28 = CIRCLE ( 'NONE', #18, 3000.000000000000455 ) ;
#29 = CARTESIAN_POINT ( 'NONE',  ( 3.677613769070831040E-13, 0.000000000000000000, 15.00000000000012434 ) ) ;
#30 = FACE_OUTER_BOUND ( 'NONE', #83, .T. ) ;
#31 = CARTESIAN_POINT ( 'NONE',  ( 0.000000000000000000, 0.000000000000000000, 0.000000000000000000 ) ) ;
#32 = APPROVAL_ROLE ( '' ) ;
#33 = LOCAL_TIME ( 8, 29, 19.00000000000000000, #101 ) ;
#34 = APPLICATION_PROTOCOL_DEFINITION ( 'international standard', 'config_control_design', 1994, #134 ) ;
#35 = CIRCLE ( 'NONE', #168, 50.79999999999694182 ) ;
#36 = CALENDAR_DATE ( 2021, 26, 2 ) ;
#37 = EDGE_LOOP ( 'NONE', ( #69, #24, #82 ) ) ;
#38 = DIRECTION ( 'NONE',  ( 0.000000000000000000, 0.000000000000000000, 1.000000000000000000 ) ) ;
#39 = CC_DESIGN_SECURITY_CLASSIFICATION ( #57, ( #144 ) ) ;
#40 = MANIFOLD_SOLID_BREP ( 'Cut-Revolve1', #97 ) ;
#41 = EDGE_CURVE ( 'NONE', #145, #133, #44, .T. ) ;
#42 = FACE_OUTER_BOUND ( 'NONE', #196, .T. ) ;
#43 = DIRECTION ( 'NONE',  ( 1.000000000000000000, 0.000000000000000000, 0.000000000000000000 ) ) ;
#44 = CIRCLE ( 'NONE', #95, 50.79999999999999716 ) ;
#45 = CARTESIAN_POINT ( 'NONE',  ( 3.677613769070831040E-13, 0.000000000000000000, 3014.569862496955011 ) ) ;
#46 = DIRECTION ( 'NONE',  ( -0.000000000000000000, -0.000000000000000000, -1.000000000000000000 ) ) ;
#47 = SPHERICAL_SURFACE ( 'NONE', #151, 3000.000000000000000 ) ;
#48 = PERSON_AND_ORGANIZATION_ROLE ( 'creator' ) ;
#49 = DATE_AND_TIME ( #36, #155 ) ;
#50 = APPROVAL_STATUS ( 'not_yet_approved' ) ;
#51 = LOCAL_TIME ( 8, 29, 19.00000000000000000, #176 ) ;
#52 = AXIS2_PLACEMENT_3D ( 'NONE', #45, #185, #43 ) ;
#53 = ORIENTED_EDGE ( 'NONE', *, *, #147, .T. ) ;
#54 = APPROVAL_STATUS ( 'not_yet_approved' ) ;
#55 = FACE_OUTER_BOUND ( 'NONE', #37, .T. ) ;
#56 = ORIENTED_EDGE ( 'NONE', *, *, #90, .T. ) ;
#57 = SECURITY_CLASSIFICATION ( '', '', #188 ) ;
#58 = DIRECTION ( 'NONE',  ( 1.000000000000000000, 1.224646799147353207E-16, 0.000000000000000000 ) ) ;
#59 = DIRECTION ( 'NONE',  ( 0.000000000000000000, 1.000000000000000000, -0.000000000000000000 ) ) ;
#60 = CC_DESIGN_PERSON_AND_ORGANIZATION_ASSIGNMENT ( #81, #122, ( #57 ) ) ;
#61 = CARTESIAN_POINT ( 'NONE',  ( 50.79999999999999716, 6.221205739668553730E-15, 15.00000000000000000 ) ) ;
#62 = ADVANCED_FACE ( 'NONE', ( #30 ), #121, .T. ) ;
#63 = AXIS2_PLACEMENT_3D ( 'NONE', #31, #157, #89 ) ;
#64 = APPROVAL_STATUS ( 'not_yet_approved' ) ;
#65 = CALENDAR_DATE ( 2021, 26, 2 ) ;
#66 = DATE_AND_TIME ( #143, #33 ) ;
#67 = PERSON_AND_ORGANIZATION_ROLE ( 'design_owner' ) ;
#68 = CIRCLE ( 'NONE', #192, 3000.000000000000000 ) ;
#69 = ORIENTED_EDGE ( 'NONE', *, *, #111, .F. ) ;
#70 = CARTESIAN_POINT ( 'NONE',  ( 3.677613769070831040E-13, 0.000000000000000000, 3014.569862496955011 ) ) ;
#71 = CC_DESIGN_DATE_AND_TIME_ASSIGNMENT ( #66, #2, ( #96 ) ) ;
#72 = CARTESIAN_POINT ( 'NONE',  ( -50.79999999999999716, 0.000000000000000000, 0.000000000000000000 ) ) ;
#73 = DESIGN_CONTEXT ( 'detailed design', #134, 'design' ) ;
#74 = DIRECTION ( 'NONE',  ( -0.000000000000000000, -0.000000000000000000, -1.000000000000000000 ) ) ;
#75 = EDGE_CURVE ( 'NONE', #129, #131, #35, .T. ) ;
#76 = COORDINATED_UNIVERSAL_TIME_OFFSET ( 2, 0, .AHEAD. ) ;
#77 = AXIS2_PLACEMENT_3D ( 'NONE', #152, #104, #183 ) ;
#78 = CC_DESIGN_DATE_AND_TIME_ASSIGNMENT ( #49, #190, ( #57 ) ) ;
#79 = APPROVAL ( #50, 'UNSPECIFIED' ) ;
#80 = APPROVAL_PERSON_ORGANIZATION ( #187, #79, #108 ) ;
#81 = PERSON_AND_ORGANIZATION ( #169, #87 ) ;
#82 = ORIENTED_EDGE ( 'NONE', *, *, #161, .T. ) ;
#83 = EDGE_LOOP ( 'NONE', ( #7, #148, #115, #23 ) ) ;
#84 = CARTESIAN_POINT ( 'NONE',  ( 0.000000000000000000, 0.000000000000000000, 15.00000000000000000 ) ) ;
#85 = VECTOR ( 'NONE', #74, 1000.000000000000000 ) ;
#86 = DIRECTION ( 'NONE',  ( 1.000000000000000000, 0.000000000000000000, 0.000000000000000000 ) ) ;
#87 = ORGANIZATION ( 'UNSPECIFIED', 'UNSPECIFIED', '' ) ;
#88 = DIRECTION ( 'NONE',  ( 1.000000000000000000, 0.000000000000000000, 0.000000000000000000 ) ) ;
#89 = DIRECTION ( 'NONE',  ( 1.000000000000000000, 0.000000000000000000, -0.000000000000000000 ) ) ;
#90 = EDGE_CURVE ( 'NONE', #131, #129, #8, .T. ) ;
#91 = UNCERTAINTY_MEASURE_WITH_UNIT (LENGTH_MEASURE( 1.000000000000000082E-05 ), #26, 'distance_accuracy_value', 'NONE');
#92 = PERSON_AND_ORGANIZATION ( #169, #87 ) ;
#93 = CC_DESIGN_APPROVAL ( #3, ( #96 ) ) ;
#94 = PERSON_AND_ORGANIZATION ( #169, #87 ) ;
#95 = AXIS2_PLACEMENT_3D ( 'NONE', #14, #173, #172 ) ;
#96 = PRODUCT_DEFINITION ( 'UNKNOWN', '', #144, #73 ) ;
#97 = CLOSED_SHELL ( 'NONE', ( #98, #62, #198, #117, #10 ) ) ;
#98 = ADVANCED_FACE ( 'NONE', ( #9 ), #47, .F. ) ;
#99 = EDGE_LOOP ( 'NONE', ( #165, #191 ) ) ;
#100 = DATE_AND_TIME ( #65, #177 ) ;
#101 = COORDINATED_UNIVERSAL_TIME_OFFSET ( 2, 0, .AHEAD. ) ;
#102 = CYLINDRICAL_SURFACE ( 'NONE', #138, 50.79999999999999716 ) ;
#103 = VECTOR ( 'NONE', #181, 1000.000000000000000 ) ;
#104 = DIRECTION ( 'NONE',  ( -0.000000000000000000, -0.000000000000000000, -1.000000000000000000 ) ) ;
#105 = ADVANCED_BREP_SHAPE_REPRESENTATION ( '010-1845E_UVFS_PCV_window', ( #40, #12 ), #119 ) ;
#106 = DIRECTION ( 'NONE',  ( -1.000000000000000000, 0.000000000000000000, 0.000000000000000000 ) ) ;
#107 = FACE_OUTER_BOUND ( 'NONE', #99, .T. ) ;
#108 = APPROVAL_ROLE ( '' ) ;
#109 = DATE_AND_TIME ( #5, #51 ) ;
#110 = CC_DESIGN_PERSON_AND_ORGANIZATION_ASSIGNMENT ( #94, #114, ( #96 ) ) ;
#111 = EDGE_CURVE ( 'NONE', #129, #6, #68, .T. ) ;
#112 = CALENDAR_DATE ( 2021, 26, 2 ) ;
#113 = AXIS2_PLACEMENT_3D ( 'NONE', #136, #200, #88 ) ;
#114 = PERSON_AND_ORGANIZATION_ROLE ( 'creator' ) ;
#115 = ORIENTED_EDGE ( 'NONE', *, *, #41, .T. ) ;
#116 = APPROVAL ( #54, 'UNSPECIFIED' ) ;
#117 = ADVANCED_FACE ( 'NONE', ( #107 ), #118, .F. ) ;
#118 = PLANE ( 'NONE',  #63 ) ;
#119 =( GEOMETRIC_REPRESENTATION_CONTEXT ( 3 ) GLOBAL_UNCERTAINTY_ASSIGNED_CONTEXT ( ( #91 ) ) GLOBAL_UNIT_ASSIGNED_CONTEXT ( ( #26, #170, #11 ) ) REPRESENTATION_CONTEXT ( 'NONE', 'WORKASPACE' ) );
#120 = CARTESIAN_POINT ( 'NONE',  ( 50.79999999999999716, 6.221205739668553730E-15, 0.000000000000000000 ) ) ;
#121 = CYLINDRICAL_SURFACE ( 'NONE', #123, 50.79999999999999716 ) ;
#122 = PERSON_AND_ORGANIZATION_ROLE ( 'classification_officer' ) ;
#123 = AXIS2_PLACEMENT_3D ( 'NONE', #84, #140, #106 ) ;
#124 = PERSON_AND_ORGANIZATION ( #169, #87 ) ;
#125 = PERSON_AND_ORGANIZATION ( #169, #87 ) ;
#126 = EDGE_CURVE ( 'NONE', #129, #133, #154, .T. ) ;
#127 = APPROVAL_PERSON_ORGANIZATION ( #92, #116, #20 ) ;
#128 = PERSON_AND_ORGANIZATION ( #169, #87 ) ;
#129 = VERTEX_POINT ( 'NONE', #201 ) ;
#130 = PRODUCT_RELATED_PRODUCT_CATEGORY ( 'detail', '', ( #135 ) ) ;
#131 = VERTEX_POINT ( 'NONE', #13 ) ;
#132 = EDGE_LOOP ( 'NONE', ( #160, #149, #25 ) ) ;
#133 = VERTEX_POINT ( 'NONE', #72 ) ;
#134 = APPLICATION_CONTEXT ( 'configuration controlled 3d designs of mechanical parts and assemblies' ) ;
#135 = PRODUCT ( '010-1845E_UVFS_PCV_window', '010-1845E_UVFS_PCV_window', '', ( #158 ) ) ;
#136 = CARTESIAN_POINT ( 'NONE',  ( 0.000000000000000000, 0.000000000000000000, 0.000000000000000000 ) ) ;
#137 = DIRECTION ( 'NONE',  ( 1.000000000000000000, 0.000000000000000000, 0.000000000000000000 ) ) ;
#138 = AXIS2_PLACEMENT_3D ( 'NONE', #156, #46, #153 ) ;
#139 = LINE ( 'NONE', #61, #103 ) ;
#140 = DIRECTION ( 'NONE',  ( -0.000000000000000000, -0.000000000000000000, -1.000000000000000000 ) ) ;
#141 = CARTESIAN_POINT ( 'NONE',  ( 3.677613769070831040E-13, 0.000000000000000000, 3014.569862496955011 ) ) ;
#142 = APPROVAL_DATE_TIME ( #100, #3 ) ;
#143 = CALENDAR_DATE ( 2021, 26, 2 ) ;
#144 = PRODUCT_DEFINITION_FORMATION_WITH_SPECIFIED_SOURCE ( 'ANY', '', #135, .NOT_KNOWN. ) ;
#145 = VERTEX_POINT ( 'NONE', #120 ) ;
#146 = APPROVAL_DATE_TIME ( #109, #79 ) ;
#147 = EDGE_CURVE ( 'NONE', #133, #145, #1, .T. ) ;
#148 = ORIENTED_EDGE ( 'NONE', *, *, #150, .T. ) ;
#149 = ORIENTED_EDGE ( 'NONE', *, *, #111, .T. ) ;
#150 = EDGE_CURVE ( 'NONE', #131, #145, #139, .T. ) ;
#151 = AXIS2_PLACEMENT_3D ( 'NONE', #70, #167, #137 ) ;
#152 = CARTESIAN_POINT ( 'NONE',  ( 3.677613769070831040E-13, 0.000000000000000000, 15.00000000000012434 ) ) ;
#153 = DIRECTION ( 'NONE',  ( -1.000000000000000000, 0.000000000000000000, 0.000000000000000000 ) ) ;
#154 = LINE ( 'NONE', #15, #85 ) ;
#155 = LOCAL_TIME ( 8, 29, 19.00000000000000000, #76 ) ;
#156 = CARTESIAN_POINT ( 'NONE',  ( 0.000000000000000000, 0.000000000000000000, 15.00000000000000000 ) ) ;
#157 = DIRECTION ( 'NONE',  ( 0.000000000000000000, 0.000000000000000000, 1.000000000000000000 ) ) ;
#158 = MECHANICAL_CONTEXT ( 'NONE', #178, 'mechanical' ) ;
#159 = COORDINATED_UNIVERSAL_TIME_OFFSET ( 2, 0, .AHEAD. ) ;
#160 = ORIENTED_EDGE ( 'NONE', *, *, #75, .F. ) ;
#161 = EDGE_CURVE ( 'NONE', #131, #6, #28, .T. ) ;
#162 = DATE_AND_TIME ( #112, #163 ) ;
#163 = LOCAL_TIME ( 8, 29, 19.00000000000000000, #180 ) ;
#164 = ORIENTED_EDGE ( 'NONE', *, *, #150, .F. ) ;
#165 = ORIENTED_EDGE ( 'NONE', *, *, #147, .F. ) ;
#166 = PRODUCT_DEFINITION_SHAPE ( 'NONE', 'NONE',  #96 ) ;
#167 = DIRECTION ( 'NONE',  ( 0.000000000000000000, -1.000000000000000000, -0.000000000000000000 ) ) ;
#168 = AXIS2_PLACEMENT_3D ( 'NONE', #29, #197, #86 ) ;
#169 = PERSON ( 'UNSPECIFIED', 'UNSPECIFIED', 'UNSPECIFIED', ('UNSPECIFIED'), ('UNSPECIFIED'), ('UNSPECIFIED') ) ;
#170 =( NAMED_UNIT ( * ) PLANE_ANGLE_UNIT ( ) SI_UNIT ( $, .RADIAN. ) );
#171 = SPHERICAL_SURFACE ( 'NONE', #52, 3000.000000000000000 ) ;
#172 = DIRECTION ( 'NONE',  ( 1.000000000000000000, 0.000000000000000000, 0.000000000000000000 ) ) ;
#173 = DIRECTION ( 'NONE',  ( 0.000000000000000000, 0.000000000000000000, 1.000000000000000000 ) ) ;
#174 = APPLICATION_PROTOCOL_DEFINITION ( 'international standard', 'config_control_design', 1994, #178 ) ;
#175 = CC_DESIGN_PERSON_AND_ORGANIZATION_ASSIGNMENT ( #125, #48, ( #144 ) ) ;
#176 = COORDINATED_UNIVERSAL_TIME_OFFSET ( 2, 0, .AHEAD. ) ;
#177 = LOCAL_TIME ( 8, 29, 19.00000000000000000, #159 ) ;
#178 = APPLICATION_CONTEXT ( 'configuration controlled 3d designs of mechanical parts and assemblies' ) ;
#179 = APPROVAL_DATE_TIME ( #162, #116 ) ;
#180 = COORDINATED_UNIVERSAL_TIME_OFFSET ( 2, 0, .AHEAD. ) ;
#181 = DIRECTION ( 'NONE',  ( -0.000000000000000000, -0.000000000000000000, -1.000000000000000000 ) ) ;
#182 = CARTESIAN_POINT ( 'NONE',  ( 3.677613769070831040E-13, 0.000000000000000000, 3014.569862496955011 ) ) ;
#183 = DIRECTION ( 'NONE',  ( 1.000000000000000000, 0.000000000000000000, 0.000000000000000000 ) ) ;
#184 = DIRECTION ( 'NONE',  ( 0.000000000000000000, 0.000000000000000000, 1.000000000000000000 ) ) ;
#185 = DIRECTION ( 'NONE',  ( 0.000000000000000000, -1.000000000000000000, -0.000000000000000000 ) ) ;
#186 = SHAPE_DEFINITION_REPRESENTATION ( #166, #105 ) ;
#187 = PERSON_AND_ORGANIZATION ( #169, #87 ) ;
#188 = SECURITY_CLASSIFICATION_LEVEL ( 'unclassified' ) ;
#189 = CC_DESIGN_APPROVAL ( #116, ( #144 ) ) ;
#190 = DATE_TIME_ROLE ( 'classification_date' ) ;
#191 = ORIENTED_EDGE ( 'NONE', *, *, #41, .F. ) ;
#192 = AXIS2_PLACEMENT_3D ( 'NONE', #141, #199, #58 ) ;
#193 = DIRECTION ( 'NONE',  ( 1.000000000000000000, 0.000000000000000000, 0.000000000000000000 ) ) ;
#194 = ORIENTED_EDGE ( 'NONE', *, *, #126, .T. ) ;
#195 = CARTESIAN_POINT ( 'NONE',  ( 5.514583967791860282E-13, 0.000000000000000000, 14.56986249695502167 ) ) ;
#196 = EDGE_LOOP ( 'NONE', ( #164, #56, #194, #53 ) ) ;
#197 = DIRECTION ( 'NONE',  ( -0.000000000000000000, -0.000000000000000000, -1.000000000000000000 ) ) ;
#198 = ADVANCED_FACE ( 'NONE', ( #42 ), #102, .T. ) ;
#199 = DIRECTION ( 'NONE',  ( 1.224646799147353207E-16, -1.000000000000000000, 0.000000000000000000 ) ) ;
#200 = DIRECTION ( 'NONE',  ( 0.000000000000000000, 0.000000000000000000, 1.000000000000000000 ) ) ;
#201 = CARTESIAN_POINT ( 'NONE',  ( -50.79999999999657945, 0.000000000000000000, 15.00000000000012434 ) ) ;
ENDSEC;
END-ISO-10303-21;
