ISO-10303-21;
HEADER;
FILE_DESCRIPTION (( 'STEP AP203' ),
    '1' );
FILE_NAME ('010-1835E_UVFS_PCV_window.STEP',
    '2021-02-26T06:29:01',
    ( '' ),
    ( '' ),
    'SwSTEP 2.0',
    'SolidWorks 2019',
    '' );
FILE_SCHEMA (( 'CONFIG_CONTROL_DESIGN' ));
ENDSEC;

DATA;
#1 = DIRECTION ( 'NONE',  ( 0.000000000000000000, -1.000000000000000000, -0.000000000000000000 ) ) ;
#2 = DATE_AND_TIME ( #145, #108 ) ;
#3 = APPROVAL ( #85, 'UNSPECIFIED' ) ;
#4 = APPROVAL_ROLE ( '' ) ;
#5 = ORIENTED_EDGE ( 'NONE', *, *, #43, .F. ) ;
#6 = CARTESIAN_POINT ( 'NONE',  ( 50.80000000000155325, 6.221205739668744635E-15, 14.99999999999990230 ) ) ;
#7 = VERTEX_POINT ( 'NONE', #29 ) ;
#8 = CARTESIAN_POINT ( 'NONE',  ( 3.653259665514883433E-13, 0.000000000000000000, 14.35473590856295445 ) ) ;
#9 = DIRECTION ( 'NONE',  ( 0.000000000000000000, 0.000000000000000000, 1.000000000000000000 ) ) ;
#10 = APPROVAL_DATE_TIME ( #189, #157 ) ;
#11 = CIRCLE ( 'NONE', #125, 2000.000000000000455 ) ;
#12 = CARTESIAN_POINT ( 'NONE',  ( 0.000000000000000000, 0.000000000000000000, 0.000000000000000000 ) ) ;
#13 = EDGE_CURVE ( 'NONE', #55, #101, #96, .T. ) ;
#14 = AXIS2_PLACEMENT_3D ( 'NONE', #120, #73, #24 ) ;
#15 = ORGANIZATION ( 'UNSPECIFIED', 'UNSPECIFIED', '' ) ;
#16 = APPLICATION_CONTEXT ( 'configuration controlled 3d designs of mechanical parts and assemblies' ) ;
#17 = CC_DESIGN_PERSON_AND_ORGANIZATION_ASSIGNMENT ( #38, #117, ( #81 ) ) ;
#18 = SPHERICAL_SURFACE ( 'NONE', #199, 2000.000000000000000 ) ;
#19 = PRODUCT_DEFINITION_FORMATION_WITH_SPECIFIED_SOURCE ( 'ANY', '', #49, .NOT_KNOWN. ) ;
#20 = DIRECTION ( 'NONE',  ( 0.000000000000000000, -1.000000000000000000, -0.000000000000000000 ) ) ;
#21 = DATE_TIME_ROLE ( 'classification_date' ) ;
#22 = ORIENTED_EDGE ( 'NONE', *, *, #113, .T. ) ;
#23 = COORDINATED_UNIVERSAL_TIME_OFFSET ( 2, 0, .AHEAD. ) ;
#24 = DIRECTION ( 'NONE',  ( 1.000000000000000000, 0.000000000000000000, 0.000000000000000000 ) ) ;
#25 = DIRECTION ( 'NONE',  ( 1.000000000000000000, 0.000000000000000000, -0.000000000000000000 ) ) ;
#26 = AXIS2_PLACEMENT_3D ( 'NONE', #74, #106, #61 ) ;
#27 = APPROVAL_PERSON_ORGANIZATION ( #163, #110, #4 ) ;
#28 = MECHANICAL_CONTEXT ( 'NONE', #16, 'mechanical' ) ;
#29 = CARTESIAN_POINT ( 'NONE',  ( -50.80000000000106297, 0.000000000000000000, 14.99999999999990230 ) ) ;
#30 = CIRCLE ( 'NONE', #26, 50.79999999999999716 ) ;
#31 = SHAPE_DEFINITION_REPRESENTATION ( #33, #92 ) ;
#32 = ADVANCED_FACE ( 'NONE', ( #132 ), #165, .F. ) ;
#33 = PRODUCT_DEFINITION_SHAPE ( 'NONE', 'NONE',  #52 ) ;
#34 = EDGE_LOOP ( 'NONE', ( #195, #35 ) ) ;
#35 = ORIENTED_EDGE ( 'NONE', *, *, #139, .F. ) ;
#36 = VECTOR ( 'NONE', #122, 1000.000000000000000 ) ;
#37 = CC_DESIGN_PERSON_AND_ORGANIZATION_ASSIGNMENT ( #123, #185, ( #19 ) ) ;
#38 = PERSON_AND_ORGANIZATION ( #124, #15 ) ;
#39 = DATE_AND_TIME ( #171, #200 ) ;
#40 = DIRECTION ( 'NONE',  ( -0.000000000000000000, -0.000000000000000000, -1.000000000000000000 ) ) ;
#41 = ORIENTED_EDGE ( 'NONE', *, *, #13, .T. ) ;
#42 = PERSON_AND_ORGANIZATION_ROLE ( 'design_supplier' ) ;
#43 = EDGE_CURVE ( 'NONE', #7, #164, #98, .T. ) ;
#44 = CARTESIAN_POINT ( 'NONE',  ( 2.428612866367529932E-13, 0.000000000000000000, 14.99999999999990230 ) ) ;
#45 = CARTESIAN_POINT ( 'NONE',  ( 0.000000000000000000, 0.000000000000000000, 15.00000000000000000 ) ) ;
#46 = PERSON_AND_ORGANIZATION ( #124, #15 ) ;
#47 = CALENDAR_DATE ( 2021, 26, 2 ) ;
#48 = ADVANCED_FACE ( 'NONE', ( #68 ), #133, .F. ) ;
#49 = PRODUCT ( '010-1835E_UVFS_PCV_window', '010-1835E_UVFS_PCV_window', '', ( #28 ) ) ;
#50 = AXIS2_PLACEMENT_3D ( 'NONE', #84, #59, #143 ) ;
#51 = DESIGN_CONTEXT ( 'detailed design', #141, 'design' ) ;
#52 = PRODUCT_DEFINITION ( 'UNKNOWN', '', #19, #51 ) ;
#53 = AXIS2_PLACEMENT_3D ( 'NONE', #12, #192, #153 ) ;
#54 = DIRECTION ( 'NONE',  ( 1.000000000000000000, 0.000000000000000000, 0.000000000000000000 ) ) ;
#55 = VERTEX_POINT ( 'NONE', #115 ) ;
#56 =( LENGTH_UNIT ( ) NAMED_UNIT ( * ) SI_UNIT ( .MILLI., .METRE. ) );
#57 = FACE_OUTER_BOUND ( 'NONE', #104, .T. ) ;
#58 = APPROVAL_DATE_TIME ( #2, #3 ) ;
#59 = DIRECTION ( 'NONE',  ( 1.224646799147353207E-16, -1.000000000000000000, 0.000000000000000000 ) ) ;
#60 = CARTESIAN_POINT ( 'NONE',  ( 50.79999999999999716, 6.221205739668553730E-15, 0.000000000000000000 ) ) ;
#61 = DIRECTION ( 'NONE',  ( 1.000000000000000000, 0.000000000000000000, 0.000000000000000000 ) ) ;
#62 = AXIS2_PLACEMENT_3D ( 'NONE', #134, #105, #71 ) ;
#63 =( NAMED_UNIT ( * ) PLANE_ANGLE_UNIT ( ) SI_UNIT ( $, .RADIAN. ) );
#64 = CALENDAR_DATE ( 2021, 26, 2 ) ;
#65 = CC_DESIGN_DATE_AND_TIME_ASSIGNMENT ( #39, #103, ( #52 ) ) ;
#66 = AXIS2_PLACEMENT_3D ( 'NONE', #45, #190, #107 ) ;
#67 = PERSON_AND_ORGANIZATION ( #124, #15 ) ;
#68 = FACE_OUTER_BOUND ( 'NONE', #34, .T. ) ;
#69 = CARTESIAN_POINT ( 'NONE',  ( 2.428612866367529932E-13, 0.000000000000000000, 2014.354735908563043 ) ) ;
#70 = FACE_OUTER_BOUND ( 'NONE', #159, .T. ) ;
#71 = DIRECTION ( 'NONE',  ( 1.000000000000000000, 0.000000000000000000, 0.000000000000000000 ) ) ;
#72 = CLOSED_SHELL ( 'NONE', ( #97, #197, #130, #48, #32 ) ) ;
#73 = DIRECTION ( 'NONE',  ( -0.000000000000000000, -0.000000000000000000, -1.000000000000000000 ) ) ;
#74 = CARTESIAN_POINT ( 'NONE',  ( 0.000000000000000000, 0.000000000000000000, 0.000000000000000000 ) ) ;
#75 = EDGE_LOOP ( 'NONE', ( #5, #162, #151 ) ) ;
#76 = PERSON_AND_ORGANIZATION ( #124, #15 ) ;
#77 = LOCAL_TIME ( 8, 29, 1.000000000000000000, #155 ) ;
#78 = CC_DESIGN_DATE_AND_TIME_ASSIGNMENT ( #177, #21, ( #81 ) ) ;
#79 = COORDINATED_UNIVERSAL_TIME_OFFSET ( 2, 0, .AHEAD. ) ;
#80 = ORIENTED_EDGE ( 'NONE', *, *, #43, .T. ) ;
#81 = SECURITY_CLASSIFICATION ( '', '', #95 ) ;
#82 = UNCERTAINTY_MEASURE_WITH_UNIT (LENGTH_MEASURE( 1.000000000000000082E-05 ), #56, 'distance_accuracy_value', 'NONE');
#83 = ORIENTED_EDGE ( 'NONE', *, *, #142, .T. ) ;
#84 = CARTESIAN_POINT ( 'NONE',  ( 2.428612866367529932E-13, 0.000000000000000000, 2014.354735908563043 ) ) ;
#85 = APPROVAL_STATUS ( 'not_yet_approved' ) ;
#86 = APPROVAL_STATUS ( 'not_yet_approved' ) ;
#87 = ORIENTED_EDGE ( 'NONE', *, *, #138, .F. ) ;
#88 = PRODUCT_RELATED_PRODUCT_CATEGORY ( 'detail', '', ( #49 ) ) ;
#89 = DIRECTION ( 'NONE',  ( -1.000000000000000000, 0.000000000000000000, 0.000000000000000000 ) ) ;
#90 = DIRECTION ( 'NONE',  ( 0.000000000000000000, 1.000000000000000000, -0.000000000000000000 ) ) ;
#91 = LINE ( 'NONE', #196, #118 ) ;
#92 = ADVANCED_BREP_SHAPE_REPRESENTATION ( '010-1835E_UVFS_PCV_window', ( #152, #53 ), #114 ) ;
#93 = DIRECTION ( 'NONE',  ( -0.000000000000000000, -0.000000000000000000, -1.000000000000000000 ) ) ;
#94 = APPLICATION_PROTOCOL_DEFINITION ( 'international standard', 'config_control_design', 1994, #141 ) ;
#95 = SECURITY_CLASSIFICATION_LEVEL ( 'unclassified' ) ;
#96 = CIRCLE ( 'NONE', #62, 50.79999999999999716 ) ;
#97 = ADVANCED_FACE ( 'NONE', ( #57 ), #18, .F. ) ;
#98 = CIRCLE ( 'NONE', #50, 2000.000000000000000 ) ;
#99 = EDGE_CURVE ( 'NONE', #201, #164, #11, .T. ) ;
#100 = ORIENTED_EDGE ( 'NONE', *, *, #138, .T. ) ;
#101 = VERTEX_POINT ( 'NONE', #60 ) ;
#102 = PERSON_AND_ORGANIZATION ( #124, #15 ) ;
#103 = DATE_TIME_ROLE ( 'creation_date' ) ;
#104 = EDGE_LOOP ( 'NONE', ( #176, #80, #119 ) ) ;
#105 = DIRECTION ( 'NONE',  ( 0.000000000000000000, 0.000000000000000000, 1.000000000000000000 ) ) ;
#106 = DIRECTION ( 'NONE',  ( 0.000000000000000000, 0.000000000000000000, 1.000000000000000000 ) ) ;
#107 = DIRECTION ( 'NONE',  ( -1.000000000000000000, 0.000000000000000000, 0.000000000000000000 ) ) ;
#108 = LOCAL_TIME ( 8, 29, 1.000000000000000000, #129 ) ;
#109 = APPROVAL_ROLE ( '' ) ;
#110 = APPROVAL ( #146, 'UNSPECIFIED' ) ;
#111 = COORDINATED_UNIVERSAL_TIME_OFFSET ( 2, 0, .AHEAD. ) ;
#112 = CC_DESIGN_APPROVAL ( #157, ( #52 ) ) ;
#113 = EDGE_CURVE ( 'NONE', #201, #101, #170, .T. ) ;
#114 =( GEOMETRIC_REPRESENTATION_CONTEXT ( 3 ) GLOBAL_UNCERTAINTY_ASSIGNED_CONTEXT ( ( #82 ) ) GLOBAL_UNIT_ASSIGNED_CONTEXT ( ( #56, #63, #150 ) ) REPRESENTATION_CONTEXT ( 'NONE', 'WORKASPACE' ) );
#115 = CARTESIAN_POINT ( 'NONE',  ( -50.79999999999999716, 0.000000000000000000, 0.000000000000000000 ) ) ;
#116 = ORIENTED_EDGE ( 'NONE', *, *, #172, .T. ) ;
#117 = PERSON_AND_ORGANIZATION_ROLE ( 'classification_officer' ) ;
#118 = VECTOR ( 'NONE', #93, 1000.000000000000000 ) ;
#119 = ORIENTED_EDGE ( 'NONE', *, *, #99, .F. ) ;
#120 = CARTESIAN_POINT ( 'NONE',  ( 2.428612866367529932E-13, 0.000000000000000000, 14.99999999999990230 ) ) ;
#121 = CARTESIAN_POINT ( 'NONE',  ( 0.000000000000000000, 0.000000000000000000, 0.000000000000000000 ) ) ;
#122 = DIRECTION ( 'NONE',  ( -0.000000000000000000, -0.000000000000000000, -1.000000000000000000 ) ) ;
#123 = PERSON_AND_ORGANIZATION ( #124, #15 ) ;
#124 = PERSON ( 'UNSPECIFIED', 'UNSPECIFIED', 'UNSPECIFIED', ('UNSPECIFIED'), ('UNSPECIFIED'), ('UNSPECIFIED') ) ;
#125 = AXIS2_PLACEMENT_3D ( 'NONE', #69, #90, #9 ) ;
#126 = CC_DESIGN_SECURITY_CLASSIFICATION ( #81, ( #19 ) ) ;
#127 = APPROVAL_ROLE ( '' ) ;
#128 = CARTESIAN_POINT ( 'NONE',  ( 2.428612866367529932E-13, 0.000000000000000000, 2014.354735908563043 ) ) ;
#129 = COORDINATED_UNIVERSAL_TIME_OFFSET ( 2, 0, .AHEAD. ) ;
#130 = ADVANCED_FACE ( 'NONE', ( #181 ), #131, .T. ) ;
#131 = CYLINDRICAL_SURFACE ( 'NONE', #66, 50.79999999999999716 ) ;
#132 = FACE_OUTER_BOUND ( 'NONE', #75, .T. ) ;
#133 = PLANE ( 'NONE',  #160 ) ;
#134 = CARTESIAN_POINT ( 'NONE',  ( 0.000000000000000000, 0.000000000000000000, 0.000000000000000000 ) ) ;
#135 = PERSON_AND_ORGANIZATION_ROLE ( 'creator' ) ;
#136 = LOCAL_TIME ( 8, 29, 1.000000000000000000, #23 ) ;
#137 = DATE_AND_TIME ( #64, #167 ) ;
#138 = EDGE_CURVE ( 'NONE', #7, #55, #91, .T. ) ;
#139 = EDGE_CURVE ( 'NONE', #101, #55, #30, .T. ) ;
#140 = AXIS2_PLACEMENT_3D ( 'NONE', #44, #40, #194 ) ;
#141 = APPLICATION_CONTEXT ( 'configuration controlled 3d designs of mechanical parts and assemblies' ) ;
#142 = EDGE_CURVE ( 'NONE', #201, #7, #166, .T. ) ;
#143 = DIRECTION ( 'NONE',  ( 1.000000000000000000, 1.224646799147353207E-16, 0.000000000000000000 ) ) ;
#144 = CARTESIAN_POINT ( 'NONE',  ( 2.428612866367529932E-13, 0.000000000000000000, 2014.354735908563043 ) ) ;
#145 = CALENDAR_DATE ( 2021, 26, 2 ) ;
#146 = APPROVAL_STATUS ( 'not_yet_approved' ) ;
#147 = EDGE_LOOP ( 'NONE', ( #188, #83, #100, #41 ) ) ;
#148 = CIRCLE ( 'NONE', #14, 50.80000000000131877 ) ;
#149 = CC_DESIGN_APPROVAL ( #110, ( #19 ) ) ;
#150 =( NAMED_UNIT ( * ) SI_UNIT ( $, .STERADIAN. ) SOLID_ANGLE_UNIT ( ) );
#151 = ORIENTED_EDGE ( 'NONE', *, *, #99, .T. ) ;
#152 = MANIFOLD_SOLID_BREP ( 'Cut-Revolve1', #72 ) ;
#153 = DIRECTION ( 'NONE',  ( 1.000000000000000000, 0.000000000000000000, 0.000000000000000000 ) ) ;
#154 = CARTESIAN_POINT ( 'NONE',  ( 50.79999999999999716, 6.221205739668553730E-15, 15.00000000000000000 ) ) ;
#155 = COORDINATED_UNIVERSAL_TIME_OFFSET ( 2, 0, .AHEAD. ) ;
#156 = PERSON_AND_ORGANIZATION ( #124, #15 ) ;
#157 = APPROVAL ( #86, 'UNSPECIFIED' ) ;
#158 = CC_DESIGN_APPROVAL ( #3, ( #81 ) ) ;
#159 = EDGE_LOOP ( 'NONE', ( #116, #22, #193, #87 ) ) ;
#160 = AXIS2_PLACEMENT_3D ( 'NONE', #121, #179, #25 ) ;
#161 = AXIS2_PLACEMENT_3D ( 'NONE', #178, #180, #89 ) ;
#162 = ORIENTED_EDGE ( 'NONE', *, *, #142, .F. ) ;
#163 = PERSON_AND_ORGANIZATION ( #124, #15 ) ;
#164 = VERTEX_POINT ( 'NONE', #8 ) ;
#165 = SPHERICAL_SURFACE ( 'NONE', #173, 2000.000000000000000 ) ;
#166 = CIRCLE ( 'NONE', #140, 50.80000000000131877 ) ;
#167 = LOCAL_TIME ( 8, 29, 1.000000000000000000, #79 ) ;
#168 = CC_DESIGN_PERSON_AND_ORGANIZATION_ASSIGNMENT ( #67, #42, ( #19 ) ) ;
#169 = APPLICATION_PROTOCOL_DEFINITION ( 'international standard', 'config_control_design', 1994, #16 ) ;
#170 = LINE ( 'NONE', #154, #36 ) ;
#171 = CALENDAR_DATE ( 2021, 26, 2 ) ;
#172 = EDGE_CURVE ( 'NONE', #7, #201, #148, .T. ) ;
#173 = AXIS2_PLACEMENT_3D ( 'NONE', #144, #20, #54 ) ;
#174 = CC_DESIGN_PERSON_AND_ORGANIZATION_ASSIGNMENT ( #76, #135, ( #52 ) ) ;
#175 = DIRECTION ( 'NONE',  ( 1.000000000000000000, 0.000000000000000000, 0.000000000000000000 ) ) ;
#176 = ORIENTED_EDGE ( 'NONE', *, *, #172, .F. ) ;
#177 = DATE_AND_TIME ( #191, #136 ) ;
#178 = CARTESIAN_POINT ( 'NONE',  ( 0.000000000000000000, 0.000000000000000000, 15.00000000000000000 ) ) ;
#179 = DIRECTION ( 'NONE',  ( 0.000000000000000000, 0.000000000000000000, 1.000000000000000000 ) ) ;
#180 = DIRECTION ( 'NONE',  ( -0.000000000000000000, -0.000000000000000000, -1.000000000000000000 ) ) ;
#181 = FACE_OUTER_BOUND ( 'NONE', #147, .T. ) ;
#182 = APPROVAL_PERSON_ORGANIZATION ( #156, #157, #109 ) ;
#183 = CYLINDRICAL_SURFACE ( 'NONE', #161, 50.79999999999999716 ) ;
#184 = PERSON_AND_ORGANIZATION_ROLE ( 'design_owner' ) ;
#185 = PERSON_AND_ORGANIZATION_ROLE ( 'creator' ) ;
#186 = CC_DESIGN_PERSON_AND_ORGANIZATION_ASSIGNMENT ( #46, #184, ( #49 ) ) ;
#187 = APPROVAL_PERSON_ORGANIZATION ( #102, #3, #127 ) ;
#188 = ORIENTED_EDGE ( 'NONE', *, *, #113, .F. ) ;
#189 = DATE_AND_TIME ( #47, #77 ) ;
#190 = DIRECTION ( 'NONE',  ( -0.000000000000000000, -0.000000000000000000, -1.000000000000000000 ) ) ;
#191 = CALENDAR_DATE ( 2021, 26, 2 ) ;
#192 = DIRECTION ( 'NONE',  ( 0.000000000000000000, 0.000000000000000000, 1.000000000000000000 ) ) ;
#193 = ORIENTED_EDGE ( 'NONE', *, *, #139, .T. ) ;
#194 = DIRECTION ( 'NONE',  ( 1.000000000000000000, 0.000000000000000000, 0.000000000000000000 ) ) ;
#195 = ORIENTED_EDGE ( 'NONE', *, *, #13, .F. ) ;
#196 = CARTESIAN_POINT ( 'NONE',  ( -50.79999999999999716, 0.000000000000000000, 15.00000000000000000 ) ) ;
#197 = ADVANCED_FACE ( 'NONE', ( #70 ), #183, .T. ) ;
#198 = APPROVAL_DATE_TIME ( #137, #110 ) ;
#199 = AXIS2_PLACEMENT_3D ( 'NONE', #128, #1, #175 ) ;
#200 = LOCAL_TIME ( 8, 29, 1.000000000000000000, #111 ) ;
#201 = VERTEX_POINT ( 'NONE', #6 ) ;
ENDSEC;
END-ISO-10303-21;
