ISO-10303-21;
HEADER;
FILE_DESCRIPTION (( 'STEP AP203' ),
    '1' );
FILE_NAME ('010-1830E_UVFS_PCV_window.STEP',
    '2021-02-26T06:28:46',
    ( '' ),
    ( '' ),
    'SwSTEP 2.0',
    'SolidWorks 2019',
    '' );
FILE_SCHEMA (( 'CONFIG_CONTROL_DESIGN' ));
ENDSEC;

DATA;
#1 = EDGE_LOOP ( 'NONE', ( #139, #172 ) ) ;
#2 = PERSON_AND_ORGANIZATION ( #87, #201 ) ;
#3 = AXIS2_PLACEMENT_3D ( 'NONE', #171, #184, #12 ) ;
#4 = ORIENTED_EDGE ( 'NONE', *, *, #76, .T. ) ;
#5 = APPROVAL_DATE_TIME ( #140, #41 ) ;
#6 = COORDINATED_UNIVERSAL_TIME_OFFSET ( 2, 0, .AHEAD. ) ;
#7 = ORIENTED_EDGE ( 'NONE', *, *, #182, .F. ) ;
#8 = APPROVAL_PERSON_ORGANIZATION ( #35, #56, #109 ) ;
#9 = FACE_OUTER_BOUND ( 'NONE', #156, .T. ) ;
#10 = CARTESIAN_POINT ( 'NONE',  ( 50.80000000000149640, 6.221205739668737535E-15, 14.99999999999990230 ) ) ;
#11 = ORIENTED_EDGE ( 'NONE', *, *, #150, .T. ) ;
#12 = DIRECTION ( 'NONE',  ( 1.000000000000000000, 0.000000000000000000, 0.000000000000000000 ) ) ;
#13 = DIRECTION ( 'NONE',  ( 1.000000000000000000, 0.000000000000000000, 0.000000000000000000 ) ) ;
#14 = AXIS2_PLACEMENT_3D ( 'NONE', #132, #44, #198 ) ;
#15 = EDGE_CURVE ( 'NONE', #32, #72, #121, .T. ) ;
#16 = ORIENTED_EDGE ( 'NONE', *, *, #167, .F. ) ;
#17 = MECHANICAL_CONTEXT ( 'NONE', #97, 'mechanical' ) ;
#18 = CARTESIAN_POINT ( 'NONE',  ( 0.000000000000000000, 0.000000000000000000, 15.00000000000000000 ) ) ;
#19 = PERSON_AND_ORGANIZATION_ROLE ( 'classification_officer' ) ;
#20 = APPROVAL_PERSON_ORGANIZATION ( #123, #41, #79 ) ;
#21 = COORDINATED_UNIVERSAL_TIME_OFFSET ( 2, 0, .AHEAD. ) ;
#22 = VECTOR ( 'NONE', #105, 1000.000000000000000 ) ;
#23 = DIRECTION ( 'NONE',  ( 1.000000000000000000, 0.000000000000000000, 0.000000000000000000 ) ) ;
#24 = ORIENTED_EDGE ( 'NONE', *, *, #194, .F. ) ;
#25 = AXIS2_PLACEMENT_3D ( 'NONE', #183, #73, #148 ) ;
#26 = DIRECTION ( 'NONE',  ( 1.000000000000000000, 0.000000000000000000, 0.000000000000000000 ) ) ;
#27 = DIRECTION ( 'NONE',  ( -0.000000000000000000, -0.000000000000000000, -1.000000000000000000 ) ) ;
#28 = DIRECTION ( 'NONE',  ( -0.000000000000000000, -0.000000000000000000, -1.000000000000000000 ) ) ;
#29 = CC_DESIGN_PERSON_AND_ORGANIZATION_ASSIGNMENT ( #99, #159, ( #197 ) ) ;
#30 = CYLINDRICAL_SURFACE ( 'NONE', #14, 50.79999999999999716 ) ;
#31 = DIRECTION ( 'NONE',  ( 1.000000000000000000, 0.000000000000000000, 0.000000000000000000 ) ) ;
#32 = VERTEX_POINT ( 'NONE', #34 ) ;
#33 = CALENDAR_DATE ( 2021, 26, 2 ) ;
#34 = CARTESIAN_POINT ( 'NONE',  ( 50.79999999999999716, 6.221205739668553730E-15, 0.000000000000000000 ) ) ;
#35 = PERSON_AND_ORGANIZATION ( #87, #201 ) ;
#36 = DATE_TIME_ROLE ( 'creation_date' ) ;
#37 = AXIS2_PLACEMENT_3D ( 'NONE', #18, #70, #151 ) ;
#38 = LOCAL_TIME ( 8, 28, 46.00000000000000000, #64 ) ;
#39 = PERSON_AND_ORGANIZATION ( #87, #201 ) ;
#40 = DIRECTION ( 'NONE',  ( 0.000000000000000000, -1.000000000000000000, -0.000000000000000000 ) ) ;
#41 = APPROVAL ( #130, 'UNSPECIFIED' ) ;
#42 = DIRECTION ( 'NONE',  ( 0.000000000000000000, 0.000000000000000000, 1.000000000000000000 ) ) ;
#43 = CC_DESIGN_PERSON_AND_ORGANIZATION_ASSIGNMENT ( #39, #19, ( #162 ) ) ;
#44 = DIRECTION ( 'NONE',  ( -0.000000000000000000, -0.000000000000000000, -1.000000000000000000 ) ) ;
#45 = CARTESIAN_POINT ( 'NONE',  ( 1.804112415015879378E-13, 0.000000000000000000, 1514.139539869454438 ) ) ;
#46 = CC_DESIGN_APPROVAL ( #56, ( #197 ) ) ;
#47 = APPLICATION_PROTOCOL_DEFINITION ( 'international standard', 'config_control_design', 1994, #97 ) ;
#48 = ORIENTED_EDGE ( 'NONE', *, *, #93, .F. ) ;
#49 = CARTESIAN_POINT ( 'NONE',  ( 0.000000000000000000, 0.000000000000000000, 0.000000000000000000 ) ) ;
#50 = DIRECTION ( 'NONE',  ( 1.000000000000000000, 0.000000000000000000, 0.000000000000000000 ) ) ;
#51 = APPLICATION_PROTOCOL_DEFINITION ( 'international standard', 'config_control_design', 1994, #137 ) ;
#52 = AXIS2_PLACEMENT_3D ( 'NONE', #45, #40, #13 ) ;
#53 = AXIS2_PLACEMENT_3D ( 'NONE', #91, #54, #169 ) ;
#54 = DIRECTION ( 'NONE',  ( -0.000000000000000000, -0.000000000000000000, -1.000000000000000000 ) ) ;
#55 = CARTESIAN_POINT ( 'NONE',  ( 50.79999999999999716, 6.221205739668553730E-15, 15.00000000000000000 ) ) ;
#56 = APPROVAL ( #161, 'UNSPECIFIED' ) ;
#57 =( NAMED_UNIT ( * ) PLANE_ANGLE_UNIT ( ) SI_UNIT ( $, .RADIAN. ) );
#58 = PLANE ( 'NONE',  #119 ) ;
#59 = CIRCLE ( 'NONE', #3, 50.79999999999999716 ) ;
#60 = ORIENTED_EDGE ( 'NONE', *, *, #93, .T. ) ;
#61 = COORDINATED_UNIVERSAL_TIME_OFFSET ( 2, 0, .AHEAD. ) ;
#62 = EDGE_LOOP ( 'NONE', ( #141, #16, #168 ) ) ;
#63 = AXIS2_PLACEMENT_3D ( 'NONE', #134, #117, #103 ) ;
#64 = COORDINATED_UNIVERSAL_TIME_OFFSET ( 2, 0, .AHEAD. ) ;
#65 = PRODUCT_DEFINITION ( 'UNKNOWN', '', #197, #136 ) ;
#66 = CALENDAR_DATE ( 2021, 26, 2 ) ;
#67 = AXIS2_PLACEMENT_3D ( 'NONE', #191, #176, #50 ) ;
#68 = APPROVAL_PERSON_ORGANIZATION ( #146, #189, #100 ) ;
#69 = ADVANCED_FACE ( 'NONE', ( #111 ), #108, .T. ) ;
#70 = DIRECTION ( 'NONE',  ( -0.000000000000000000, -0.000000000000000000, -1.000000000000000000 ) ) ;
#71 = VERTEX_POINT ( 'NONE', #120 ) ;
#72 = VERTEX_POINT ( 'NONE', #74 ) ;
#73 = DIRECTION ( 'NONE',  ( 1.224646799147353207E-16, -1.000000000000000000, 0.000000000000000000 ) ) ;
#74 = CARTESIAN_POINT ( 'NONE',  ( -50.79999999999999716, 0.000000000000000000, 0.000000000000000000 ) ) ;
#75 = ADVANCED_BREP_SHAPE_REPRESENTATION ( '010-1830E_UVFS_PCV_window', ( #145, #195 ), #188 ) ;
#76 = EDGE_CURVE ( 'NONE', #72, #32, #59, .T. ) ;
#77 = CC_DESIGN_DATE_AND_TIME_ASSIGNMENT ( #177, #36, ( #65 ) ) ;
#78 = VERTEX_POINT ( 'NONE', #187 ) ;
#79 = APPROVAL_ROLE ( '' ) ;
#80 = CIRCLE ( 'NONE', #106, 50.80000000000131877 ) ;
#81 = ORIENTED_EDGE ( 'NONE', *, *, #182, .T. ) ;
#82 = CALENDAR_DATE ( 2021, 26, 2 ) ;
#83 = LOCAL_TIME ( 8, 28, 46.00000000000000000, #6 ) ;
#84 = SECURITY_CLASSIFICATION_LEVEL ( 'unclassified' ) ;
#85 = VECTOR ( 'NONE', #27, 1000.000000000000000 ) ;
#86 = APPROVAL_DATE_TIME ( #114, #189 ) ;
#87 = PERSON ( 'UNSPECIFIED', 'UNSPECIFIED', 'UNSPECIFIED', ('UNSPECIFIED'), ('UNSPECIFIED'), ('UNSPECIFIED') ) ;
#88 = CARTESIAN_POINT ( 'NONE',  ( 1.804112415015879378E-13, 0.000000000000000000, 1514.139539869454438 ) ) ;
#89 = LOCAL_TIME ( 8, 28, 46.00000000000000000, #21 ) ;
#90 = FACE_OUTER_BOUND ( 'NONE', #1, .T. ) ;
#91 = CARTESIAN_POINT ( 'NONE',  ( 1.804112415015879378E-13, 0.000000000000000000, 14.99999999999990230 ) ) ;
#92 = FACE_OUTER_BOUND ( 'NONE', #95, .T. ) ;
#93 = EDGE_CURVE ( 'NONE', #71, #190, #80, .T. ) ;
#94 = CC_DESIGN_PERSON_AND_ORGANIZATION_ASSIGNMENT ( #2, #127, ( #197 ) ) ;
#95 = EDGE_LOOP ( 'NONE', ( #48, #126, #24 ) ) ;
#96 =( NAMED_UNIT ( * ) SI_UNIT ( $, .STERADIAN. ) SOLID_ANGLE_UNIT ( ) );
#97 = APPLICATION_CONTEXT ( 'configuration controlled 3d designs of mechanical parts and assemblies' ) ;
#98 = ORIENTED_EDGE ( 'NONE', *, *, #150, .F. ) ;
#99 = PERSON_AND_ORGANIZATION ( #87, #201 ) ;
#100 = APPROVAL_ROLE ( '' ) ;
#101 = CC_DESIGN_APPROVAL ( #41, ( #65 ) ) ;
#102 = DIRECTION ( 'NONE',  ( 1.000000000000000000, 0.000000000000000000, -0.000000000000000000 ) ) ;
#103 = DIRECTION ( 'NONE',  ( 0.000000000000000000, 0.000000000000000000, 1.000000000000000000 ) ) ;
#104 = DIRECTION ( 'NONE',  ( 0.000000000000000000, -1.000000000000000000, -0.000000000000000000 ) ) ;
#105 = DIRECTION ( 'NONE',  ( -0.000000000000000000, -0.000000000000000000, -1.000000000000000000 ) ) ;
#106 = AXIS2_PLACEMENT_3D ( 'NONE', #200, #28, #31 ) ;
#107 = ADVANCED_FACE ( 'NONE', ( #92 ), #118, .F. ) ;
#108 = CYLINDRICAL_SURFACE ( 'NONE', #37, 50.79999999999999716 ) ;
#109 = APPROVAL_ROLE ( '' ) ;
#110 = PERSON_AND_ORGANIZATION_ROLE ( 'design_owner' ) ;
#111 = FACE_OUTER_BOUND ( 'NONE', #173, .T. ) ;
#112 = CIRCLE ( 'NONE', #25, 1500.000000000000000 ) ;
#113 = DATE_TIME_ROLE ( 'classification_date' ) ;
#114 = DATE_AND_TIME ( #128, #38 ) ;
#115 = ADVANCED_FACE ( 'NONE', ( #90 ), #58, .F. ) ;
#116 = PERSON_AND_ORGANIZATION ( #87, #201 ) ;
#117 = DIRECTION ( 'NONE',  ( 0.000000000000000000, 1.000000000000000000, -0.000000000000000000 ) ) ;
#118 = SPHERICAL_SURFACE ( 'NONE', #52, 1500.000000000000000 ) ;
#119 = AXIS2_PLACEMENT_3D ( 'NONE', #170, #42, #102 ) ;
#120 = CARTESIAN_POINT ( 'NONE',  ( -50.80000000000113403, 0.000000000000000000, 14.99999999999990230 ) ) ;
#121 = CIRCLE ( 'NONE', #67, 50.79999999999999716 ) ;
#122 = LOCAL_TIME ( 8, 28, 46.00000000000000000, #61 ) ;
#123 = PERSON_AND_ORGANIZATION ( #87, #201 ) ;
#124 = ORIENTED_EDGE ( 'NONE', *, *, #167, .T. ) ;
#125 = DATE_AND_TIME ( #142, #122 ) ;
#126 = ORIENTED_EDGE ( 'NONE', *, *, #144, .T. ) ;
#127 = PERSON_AND_ORGANIZATION_ROLE ( 'design_supplier' ) ;
#128 = CALENDAR_DATE ( 2021, 26, 2 ) ;
#129 = ADVANCED_FACE ( 'NONE', ( #152 ), #166, .F. ) ;
#130 = APPROVAL_STATUS ( 'not_yet_approved' ) ;
#131 = LOCAL_TIME ( 8, 28, 46.00000000000000000, #175 ) ;
#132 = CARTESIAN_POINT ( 'NONE',  ( 0.000000000000000000, 0.000000000000000000, 15.00000000000000000 ) ) ;
#133 =( LENGTH_UNIT ( ) NAMED_UNIT ( * ) SI_UNIT ( .MILLI., .METRE. ) );
#134 = CARTESIAN_POINT ( 'NONE',  ( 1.804112415015879378E-13, 0.000000000000000000, 1514.139539869454438 ) ) ;
#135 = CARTESIAN_POINT ( 'NONE',  ( -50.79999999999999716, 0.000000000000000000, 15.00000000000000000 ) ) ;
#136 = DESIGN_CONTEXT ( 'detailed design', #137, 'design' ) ;
#137 = APPLICATION_CONTEXT ( 'configuration controlled 3d designs of mechanical parts and assemblies' ) ;
#138 = CC_DESIGN_PERSON_AND_ORGANIZATION_ASSIGNMENT ( #143, #110, ( #186 ) ) ;
#139 = ORIENTED_EDGE ( 'NONE', *, *, #76, .F. ) ;
#140 = DATE_AND_TIME ( #82, #83 ) ;
#141 = ORIENTED_EDGE ( 'NONE', *, *, #144, .F. ) ;
#142 = CALENDAR_DATE ( 2021, 26, 2 ) ;
#143 = PERSON_AND_ORGANIZATION ( #87, #201 ) ;
#144 = EDGE_CURVE ( 'NONE', #71, #78, #112, .T. ) ;
#145 = MANIFOLD_SOLID_BREP ( 'Cut-Revolve1', #147 ) ;
#146 = PERSON_AND_ORGANIZATION ( #87, #201 ) ;
#147 = CLOSED_SHELL ( 'NONE', ( #107, #69, #160, #115, #129 ) ) ;
#148 = DIRECTION ( 'NONE',  ( 1.000000000000000000, 1.224646799147353207E-16, 0.000000000000000000 ) ) ;
#149 = CC_DESIGN_APPROVAL ( #189, ( #162 ) ) ;
#150 = EDGE_CURVE ( 'NONE', #190, #32, #185, .T. ) ;
#151 = DIRECTION ( 'NONE',  ( -1.000000000000000000, 0.000000000000000000, 0.000000000000000000 ) ) ;
#152 = FACE_OUTER_BOUND ( 'NONE', #62, .T. ) ;
#153 = UNCERTAINTY_MEASURE_WITH_UNIT (LENGTH_MEASURE( 1.000000000000000082E-05 ), #133, 'distance_accuracy_value', 'NONE');
#154 = LINE ( 'NONE', #135, #22 ) ;
#155 = CIRCLE ( 'NONE', #63, 1499.999999999999773 ) ;
#156 = EDGE_LOOP ( 'NONE', ( #98, #124, #81, #4 ) ) ;
#157 = CC_DESIGN_PERSON_AND_ORGANIZATION_ASSIGNMENT ( #116, #163, ( #65 ) ) ;
#158 = ORIENTED_EDGE ( 'NONE', *, *, #15, .T. ) ;
#159 = PERSON_AND_ORGANIZATION_ROLE ( 'creator' ) ;
#160 = ADVANCED_FACE ( 'NONE', ( #9 ), #30, .T. ) ;
#161 = APPROVAL_STATUS ( 'not_yet_approved' ) ;
#162 = SECURITY_CLASSIFICATION ( '', '', #84 ) ;
#163 = PERSON_AND_ORGANIZATION_ROLE ( 'creator' ) ;
#164 = CIRCLE ( 'NONE', #53, 50.80000000000131877 ) ;
#165 = AXIS2_PLACEMENT_3D ( 'NONE', #88, #104, #26 ) ;
#166 = SPHERICAL_SURFACE ( 'NONE', #165, 1500.000000000000000 ) ;
#167 = EDGE_CURVE ( 'NONE', #190, #71, #164, .T. ) ;
#168 = ORIENTED_EDGE ( 'NONE', *, *, #194, .T. ) ;
#169 = DIRECTION ( 'NONE',  ( 1.000000000000000000, 0.000000000000000000, 0.000000000000000000 ) ) ;
#170 = CARTESIAN_POINT ( 'NONE',  ( 0.000000000000000000, 0.000000000000000000, 0.000000000000000000 ) ) ;
#171 = CARTESIAN_POINT ( 'NONE',  ( 0.000000000000000000, 0.000000000000000000, 0.000000000000000000 ) ) ;
#172 = ORIENTED_EDGE ( 'NONE', *, *, #15, .F. ) ;
#173 = EDGE_LOOP ( 'NONE', ( #60, #11, #158, #7 ) ) ;
#174 = CC_DESIGN_DATE_AND_TIME_ASSIGNMENT ( #125, #113, ( #162 ) ) ;
#175 = COORDINATED_UNIVERSAL_TIME_OFFSET ( 2, 0, .AHEAD. ) ;
#176 = DIRECTION ( 'NONE',  ( 0.000000000000000000, 0.000000000000000000, 1.000000000000000000 ) ) ;
#177 = DATE_AND_TIME ( #66, #89 ) ;
#178 = APPROVAL_STATUS ( 'not_yet_approved' ) ;
#179 = DATE_AND_TIME ( #33, #131 ) ;
#180 = CC_DESIGN_SECURITY_CLASSIFICATION ( #162, ( #197 ) ) ;
#181 = SHAPE_DEFINITION_REPRESENTATION ( #199, #75 ) ;
#182 = EDGE_CURVE ( 'NONE', #71, #72, #154, .T. ) ;
#183 = CARTESIAN_POINT ( 'NONE',  ( 1.804112415015879378E-13, 0.000000000000000000, 1514.139539869454438 ) ) ;
#184 = DIRECTION ( 'NONE',  ( 0.000000000000000000, 0.000000000000000000, 1.000000000000000000 ) ) ;
#185 = LINE ( 'NONE', #55, #85 ) ;
#186 = PRODUCT ( '010-1830E_UVFS_PCV_window', '010-1830E_UVFS_PCV_window', '', ( #17 ) ) ;
#187 = CARTESIAN_POINT ( 'NONE',  ( 2.722597514376393999E-13, 0.000000000000000000, 14.13953986945437613 ) ) ;
#188 =( GEOMETRIC_REPRESENTATION_CONTEXT ( 3 ) GLOBAL_UNCERTAINTY_ASSIGNED_CONTEXT ( ( #153 ) ) GLOBAL_UNIT_ASSIGNED_CONTEXT ( ( #133, #57, #96 ) ) REPRESENTATION_CONTEXT ( 'NONE', 'WORKASPACE' ) );
#189 = APPROVAL ( #178, 'UNSPECIFIED' ) ;
#190 = VERTEX_POINT ( 'NONE', #10 ) ;
#191 = CARTESIAN_POINT ( 'NONE',  ( 0.000000000000000000, 0.000000000000000000, 0.000000000000000000 ) ) ;
#192 = DIRECTION ( 'NONE',  ( 0.000000000000000000, 0.000000000000000000, 1.000000000000000000 ) ) ;
#193 = APPROVAL_DATE_TIME ( #179, #56 ) ;
#194 = EDGE_CURVE ( 'NONE', #190, #78, #155, .T. ) ;
#195 = AXIS2_PLACEMENT_3D ( 'NONE', #49, #192, #23 ) ;
#196 = PRODUCT_RELATED_PRODUCT_CATEGORY ( 'detail', '', ( #186 ) ) ;
#197 = PRODUCT_DEFINITION_FORMATION_WITH_SPECIFIED_SOURCE ( 'ANY', '', #186, .NOT_KNOWN. ) ;
#198 = DIRECTION ( 'NONE',  ( -1.000000000000000000, 0.000000000000000000, 0.000000000000000000 ) ) ;
#199 = PRODUCT_DEFINITION_SHAPE ( 'NONE', 'NONE',  #65 ) ;
#200 = CARTESIAN_POINT ( 'NONE',  ( 1.804112415015879378E-13, 0.000000000000000000, 14.99999999999990230 ) ) ;
#201 = ORGANIZATION ( 'UNSPECIFIED', 'UNSPECIFIED', '' ) ;
ENDSEC;
END-ISO-10303-21;
