ISO-10303-21;
HEADER;
FILE_DESCRIPTION (( 'STEP AP203' ),
    '1' );
FILE_NAME ('010-1814E_UVFS_PCV_window.STEP',
    '2021-02-26T06:27:45',
    ( '' ),
    ( '' ),
    'SwSTEP 2.0',
    'SolidWorks 2019',
    '' );
FILE_SCHEMA (( 'CONFIG_CONTROL_DESIGN' ));
ENDSEC;

DATA;
#1 = DIRECTION ( 'NONE',  ( 1.224646799147353207E-16, -1.000000000000000000, 0.000000000000000000 ) ) ;
#2 = DIRECTION ( 'NONE',  ( 0.000000000000000000, -1.000000000000000000, -0.000000000000000000 ) ) ;
#3 = CARTESIAN_POINT ( 'NONE',  ( -50.79999999999999716, 0.000000000000000000, 15.00000000000000000 ) ) ;
#4 = APPROVAL ( #93, 'UNSPECIFIED' ) ;
#5 = CARTESIAN_POINT ( 'NONE',  ( 7.632783294297951215E-14, 0.000000000000000000, 612.8455987962108793 ) ) ;
#6 = AXIS2_PLACEMENT_3D ( 'NONE', #56, #16, #71 ) ;
#7 = PERSON_AND_ORGANIZATION ( #39, #121 ) ;
#8 = APPROVAL_ROLE ( '' ) ;
#9 = DATE_AND_TIME ( #197, #10 ) ;
#10 = LOCAL_TIME ( 8, 27, 45.00000000000000000, #163 ) ;
#11 =( NAMED_UNIT ( * ) SI_UNIT ( $, .STERADIAN. ) SOLID_ANGLE_UNIT ( ) );
#12 = ORIENTED_EDGE ( 'NONE', *, *, #82, .F. ) ;
#13 = EDGE_LOOP ( 'NONE', ( #129, #140, #53, #144 ) ) ;
#14 = PRODUCT_DEFINITION_FORMATION_WITH_SPECIFIED_SOURCE ( 'ANY', '', #26, .NOT_KNOWN. ) ;
#15 = ORIENTED_EDGE ( 'NONE', *, *, #166, .T. ) ;
#16 = DIRECTION ( 'NONE',  ( -0.000000000000000000, -0.000000000000000000, -1.000000000000000000 ) ) ;
#17 = DIRECTION ( 'NONE',  ( 1.000000000000000000, 0.000000000000000000, 0.000000000000000000 ) ) ;
#18 = DIRECTION ( 'NONE',  ( -0.000000000000000000, -0.000000000000000000, -1.000000000000000000 ) ) ;
#19 = CC_DESIGN_PERSON_AND_ORGANIZATION_ASSIGNMENT ( #61, #106, ( #14 ) ) ;
#20 = FACE_OUTER_BOUND ( 'NONE', #49, .T. ) ;
#21 = APPROVAL_ROLE ( '' ) ;
#22 = AXIS2_PLACEMENT_3D ( 'NONE', #100, #192, #174 ) ;
#23 = DATE_TIME_ROLE ( 'classification_date' ) ;
#24 = COORDINATED_UNIVERSAL_TIME_OFFSET ( 2, 0, .AHEAD. ) ;
#25 = ADVANCED_BREP_SHAPE_REPRESENTATION ( '010-1814E_UVFS_PCV_window', ( #190, #72 ), #96 ) ;
#26 = PRODUCT ( '010-1814E_UVFS_PCV_window', '010-1814E_UVFS_PCV_window', '', ( #63 ) ) ;
#27 = DESIGN_CONTEXT ( 'detailed design', #159, 'design' ) ;
#28 = ORIENTED_EDGE ( 'NONE', *, *, #136, .F. ) ;
#29 = LOCAL_TIME ( 8, 27, 45.00000000000000000, #108 ) ;
#30 = CC_DESIGN_PERSON_AND_ORGANIZATION_ASSIGNMENT ( #128, #137, ( #26 ) ) ;
#31 = SHAPE_DEFINITION_REPRESENTATION ( #112, #25 ) ;
#32 = VECTOR ( 'NONE', #155, 1000.000000000000000 ) ;
#33 = ORIENTED_EDGE ( 'NONE', *, *, #149, .F. ) ;
#34 = APPROVAL ( #76, 'UNSPECIFIED' ) ;
#35 = FACE_OUTER_BOUND ( 'NONE', #97, .T. ) ;
#36 = DIRECTION ( 'NONE',  ( 0.000000000000000000, 0.000000000000000000, 1.000000000000000000 ) ) ;
#37 = CC_DESIGN_PERSON_AND_ORGANIZATION_ASSIGNMENT ( #160, #90, ( #14 ) ) ;
#38 = DIRECTION ( 'NONE',  ( -1.000000000000000000, 0.000000000000000000, 0.000000000000000000 ) ) ;
#39 = PERSON ( 'UNSPECIFIED', 'UNSPECIFIED', 'UNSPECIFIED', ('UNSPECIFIED'), ('UNSPECIFIED'), ('UNSPECIFIED') ) ;
#40 = DIRECTION ( 'NONE',  ( 1.000000000000000000, 0.000000000000000000, 0.000000000000000000 ) ) ;
#41 = APPROVAL_DATE_TIME ( #79, #34 ) ;
#42 = CALENDAR_DATE ( 2021, 26, 2 ) ;
#43 = CC_DESIGN_DATE_AND_TIME_ASSIGNMENT ( #45, #126, ( #109 ) ) ;
#44 = APPLICATION_PROTOCOL_DEFINITION ( 'international standard', 'config_control_design', 1994, #159 ) ;
#45 = DATE_AND_TIME ( #42, #68 ) ;
#46 = ADVANCED_FACE ( 'NONE', ( #132 ), #87, .T. ) ;
#47 = APPROVAL_STATUS ( 'not_yet_approved' ) ;
#48 = CIRCLE ( 'NONE', #139, 50.80000000000131877 ) ;
#49 = EDGE_LOOP ( 'NONE', ( #28, #15, #33 ) ) ;
#50 = APPROVAL_PERSON_ORGANIZATION ( #7, #34, #21 ) ;
#51 = EDGE_LOOP ( 'NONE', ( #114, #188, #113 ) ) ;
#52 = CC_DESIGN_PERSON_AND_ORGANIZATION_ASSIGNMENT ( #161, #180, ( #109 ) ) ;
#53 = ORIENTED_EDGE ( 'NONE', *, *, #82, .T. ) ;
#54 = CIRCLE ( 'NONE', #182, 50.79999999999999716 ) ;
#55 = CARTESIAN_POINT ( 'NONE',  ( 0.000000000000000000, 0.000000000000000000, 0.000000000000000000 ) ) ;
#56 = CARTESIAN_POINT ( 'NONE',  ( 7.632783294297951215E-14, 0.000000000000000000, 15.00000000000001421 ) ) ;
#57 = CARTESIAN_POINT ( 'NONE',  ( 0.000000000000000000, 0.000000000000000000, 15.00000000000000000 ) ) ;
#58 = CIRCLE ( 'NONE', #85, 600.0000000000001137 ) ;
#59 = FACE_OUTER_BOUND ( 'NONE', #165, .T. ) ;
#60 = CARTESIAN_POINT ( 'NONE',  ( 7.632783294297951215E-14, 0.000000000000000000, 15.00000000000001421 ) ) ;
#61 = PERSON_AND_ORGANIZATION ( #39, #121 ) ;
#62 = CC_DESIGN_APPROVAL ( #4, ( #183 ) ) ;
#63 = MECHANICAL_CONTEXT ( 'NONE', #143, 'mechanical' ) ;
#64 = AXIS2_PLACEMENT_3D ( 'NONE', #57, #133, #130 ) ;
#65 = DATE_AND_TIME ( #184, #152 ) ;
#66 = UNCERTAINTY_MEASURE_WITH_UNIT (LENGTH_MEASURE( 1.000000000000000082E-05 ), #150, 'distance_accuracy_value', 'NONE');
#67 = PRODUCT_RELATED_PRODUCT_CATEGORY ( 'detail', '', ( #26 ) ) ;
#68 = LOCAL_TIME ( 8, 27, 45.00000000000000000, #24 ) ;
#69 = ORIENTED_EDGE ( 'NONE', *, *, #84, .F. ) ;
#70 = ORIENTED_EDGE ( 'NONE', *, *, #136, .T. ) ;
#71 = DIRECTION ( 'NONE',  ( 1.000000000000000000, 0.000000000000000000, 0.000000000000000000 ) ) ;
#72 = AXIS2_PLACEMENT_3D ( 'NONE', #148, #107, #92 ) ;
#73 = LINE ( 'NONE', #3, #32 ) ;
#74 = CARTESIAN_POINT ( 'NONE',  ( 1.130672369174001197E-13, 0.000000000000000000, 12.84559879621083311 ) ) ;
#75 = DIRECTION ( 'NONE',  ( 1.000000000000000000, 0.000000000000000000, 0.000000000000000000 ) ) ;
#76 = APPROVAL_STATUS ( 'not_yet_approved' ) ;
#77 = COORDINATED_UNIVERSAL_TIME_OFFSET ( 2, 0, .AHEAD. ) ;
#78 = ADVANCED_FACE ( 'NONE', ( #59 ), #158, .F. ) ;
#79 = DATE_AND_TIME ( #94, #179 ) ;
#80 = CC_DESIGN_SECURITY_CLASSIFICATION ( #183, ( #14 ) ) ;
#81 = SECURITY_CLASSIFICATION_LEVEL ( 'unclassified' ) ;
#82 = EDGE_CURVE ( 'NONE', #83, #186, #73, .T. ) ;
#83 = VERTEX_POINT ( 'NONE', #117 ) ;
#84 = EDGE_CURVE ( 'NONE', #170, #186, #54, .T. ) ;
#85 = AXIS2_PLACEMENT_3D ( 'NONE', #142, #171, #131 ) ;
#86 = APPROVAL_DATE_TIME ( #65, #4 ) ;
#87 = CYLINDRICAL_SURFACE ( 'NONE', #134, 50.79999999999999716 ) ;
#88 = DIRECTION ( 'NONE',  ( -0.000000000000000000, -0.000000000000000000, -1.000000000000000000 ) ) ;
#89 = DIRECTION ( 'NONE',  ( 1.000000000000000000, 1.224646799147353207E-16, 0.000000000000000000 ) ) ;
#90 = PERSON_AND_ORGANIZATION_ROLE ( 'design_supplier' ) ;
#91 = AXIS2_PLACEMENT_3D ( 'NONE', #5, #173, #177 ) ;
#92 = DIRECTION ( 'NONE',  ( 1.000000000000000000, 0.000000000000000000, 0.000000000000000000 ) ) ;
#93 = APPROVAL_STATUS ( 'not_yet_approved' ) ;
#94 = CALENDAR_DATE ( 2021, 26, 2 ) ;
#95 = APPROVAL_DATE_TIME ( #9, #154 ) ;
#96 =( GEOMETRIC_REPRESENTATION_CONTEXT ( 3 ) GLOBAL_UNCERTAINTY_ASSIGNED_CONTEXT ( ( #66 ) ) GLOBAL_UNIT_ASSIGNED_CONTEXT ( ( #150, #181, #11 ) ) REPRESENTATION_CONTEXT ( 'NONE', 'WORKASPACE' ) );
#97 = EDGE_LOOP ( 'NONE', ( #70, #119, #200, #12 ) ) ;
#98 = CIRCLE ( 'NONE', #6, 50.80000000000131877 ) ;
#99 = DIRECTION ( 'NONE',  ( 1.000000000000000000, 0.000000000000000000, 0.000000000000000000 ) ) ;
#100 = CARTESIAN_POINT ( 'NONE',  ( 0.000000000000000000, 0.000000000000000000, 0.000000000000000000 ) ) ;
#101 = EDGE_CURVE ( 'NONE', #185, #83, #48, .T. ) ;
#102 = DIRECTION ( 'NONE',  ( -0.000000000000000000, -0.000000000000000000, -1.000000000000000000 ) ) ;
#103 = DIRECTION ( 'NONE',  ( 0.000000000000000000, 0.000000000000000000, 1.000000000000000000 ) ) ;
#104 = APPROVAL_PERSON_ORGANIZATION ( #195, #4, #8 ) ;
#105 = CARTESIAN_POINT ( 'NONE',  ( 7.632783294297951215E-14, 0.000000000000000000, 612.8455987962108793 ) ) ;
#106 = PERSON_AND_ORGANIZATION_ROLE ( 'creator' ) ;
#107 = DIRECTION ( 'NONE',  ( 0.000000000000000000, 0.000000000000000000, 1.000000000000000000 ) ) ;
#108 = COORDINATED_UNIVERSAL_TIME_OFFSET ( 2, 0, .AHEAD. ) ;
#109 = PRODUCT_DEFINITION ( 'UNKNOWN', '', #14, #27 ) ;
#110 = CIRCLE ( 'NONE', #127, 600.0000000000001137 ) ;
#111 = CC_DESIGN_PERSON_AND_ORGANIZATION_ASSIGNMENT ( #124, #178, ( #183 ) ) ;
#112 = PRODUCT_DEFINITION_SHAPE ( 'NONE', 'NONE',  #109 ) ;
#113 = ORIENTED_EDGE ( 'NONE', *, *, #149, .T. ) ;
#114 = ORIENTED_EDGE ( 'NONE', *, *, #166, .F. ) ;
#115 = EDGE_CURVE ( 'NONE', #186, #170, #153, .T. ) ;
#116 = AXIS2_PLACEMENT_3D ( 'NONE', #141, #103, #17 ) ;
#117 = CARTESIAN_POINT ( 'NONE',  ( -50.80000000000124061, 0.000000000000000000, 15.00000000000001421 ) ) ;
#118 = SPHERICAL_SURFACE ( 'NONE', #169, 600.0000000000001137 ) ;
#119 = ORIENTED_EDGE ( 'NONE', *, *, #187, .T. ) ;
#120 = FACE_OUTER_BOUND ( 'NONE', #51, .T. ) ;
#121 = ORGANIZATION ( 'UNSPECIFIED', 'UNSPECIFIED', '' ) ;
#122 = CARTESIAN_POINT ( 'NONE',  ( 50.79999999999999716, 6.221205739668553730E-15, 15.00000000000000000 ) ) ;
#123 = PERSON_AND_ORGANIZATION ( #39, #121 ) ;
#124 = PERSON_AND_ORGANIZATION ( #39, #121 ) ;
#125 = APPROVAL_PERSON_ORGANIZATION ( #123, #154, #147 ) ;
#126 = DATE_TIME_ROLE ( 'creation_date' ) ;
#127 = AXIS2_PLACEMENT_3D ( 'NONE', #105, #1, #89 ) ;
#128 = PERSON_AND_ORGANIZATION ( #39, #121 ) ;
#129 = ORIENTED_EDGE ( 'NONE', *, *, #187, .F. ) ;
#130 = DIRECTION ( 'NONE',  ( -1.000000000000000000, 0.000000000000000000, 0.000000000000000000 ) ) ;
#131 = DIRECTION ( 'NONE',  ( 0.000000000000000000, 0.000000000000000000, 1.000000000000000000 ) ) ;
#132 = FACE_OUTER_BOUND ( 'NONE', #13, .T. ) ;
#133 = DIRECTION ( 'NONE',  ( -0.000000000000000000, -0.000000000000000000, -1.000000000000000000 ) ) ;
#134 = AXIS2_PLACEMENT_3D ( 'NONE', #157, #18, #38 ) ;
#135 = CARTESIAN_POINT ( 'NONE',  ( 50.79999999999999716, 6.221205739668553730E-15, 0.000000000000000000 ) ) ;
#136 = EDGE_CURVE ( 'NONE', #83, #185, #98, .T. ) ;
#137 = PERSON_AND_ORGANIZATION_ROLE ( 'design_owner' ) ;
#138 = CLOSED_SHELL ( 'NONE', ( #198, #168, #46, #78, #191 ) ) ;
#139 = AXIS2_PLACEMENT_3D ( 'NONE', #60, #102, #75 ) ;
#140 = ORIENTED_EDGE ( 'NONE', *, *, #101, .T. ) ;
#141 = CARTESIAN_POINT ( 'NONE',  ( 0.000000000000000000, 0.000000000000000000, 0.000000000000000000 ) ) ;
#142 = CARTESIAN_POINT ( 'NONE',  ( 7.632783294297951215E-14, 0.000000000000000000, 612.8455987962108793 ) ) ;
#143 = APPLICATION_CONTEXT ( 'configuration controlled 3d designs of mechanical parts and assemblies' ) ;
#144 = ORIENTED_EDGE ( 'NONE', *, *, #115, .T. ) ;
#145 = SPHERICAL_SURFACE ( 'NONE', #91, 600.0000000000001137 ) ;
#146 = VECTOR ( 'NONE', #88, 1000.000000000000000 ) ;
#147 = APPROVAL_ROLE ( '' ) ;
#148 = CARTESIAN_POINT ( 'NONE',  ( 0.000000000000000000, 0.000000000000000000, 0.000000000000000000 ) ) ;
#149 = EDGE_CURVE ( 'NONE', #185, #167, #58, .T. ) ;
#150 =( LENGTH_UNIT ( ) NAMED_UNIT ( * ) SI_UNIT ( .MILLI., .METRE. ) );
#151 = CC_DESIGN_DATE_AND_TIME_ASSIGNMENT ( #162, #23, ( #183 ) ) ;
#152 = LOCAL_TIME ( 8, 27, 45.00000000000000000, #77 ) ;
#153 = CIRCLE ( 'NONE', #116, 50.79999999999999716 ) ;
#154 = APPROVAL ( #47, 'UNSPECIFIED' ) ;
#155 = DIRECTION ( 'NONE',  ( -0.000000000000000000, -0.000000000000000000, -1.000000000000000000 ) ) ;
#156 = CARTESIAN_POINT ( 'NONE',  ( -50.79999999999999716, 0.000000000000000000, 0.000000000000000000 ) ) ;
#157 = CARTESIAN_POINT ( 'NONE',  ( 0.000000000000000000, 0.000000000000000000, 15.00000000000000000 ) ) ;
#158 = PLANE ( 'NONE',  #22 ) ;
#159 = APPLICATION_CONTEXT ( 'configuration controlled 3d designs of mechanical parts and assemblies' ) ;
#160 = PERSON_AND_ORGANIZATION ( #39, #121 ) ;
#161 = PERSON_AND_ORGANIZATION ( #39, #121 ) ;
#162 = DATE_AND_TIME ( #199, #29 ) ;
#163 = COORDINATED_UNIVERSAL_TIME_OFFSET ( 2, 0, .AHEAD. ) ;
#164 = COORDINATED_UNIVERSAL_TIME_OFFSET ( 2, 0, .AHEAD. ) ;
#165 = EDGE_LOOP ( 'NONE', ( #176, #69 ) ) ;
#166 = EDGE_CURVE ( 'NONE', #83, #167, #110, .T. ) ;
#167 = VERTEX_POINT ( 'NONE', #74 ) ;
#168 = ADVANCED_FACE ( 'NONE', ( #35 ), #194, .T. ) ;
#169 = AXIS2_PLACEMENT_3D ( 'NONE', #172, #2, #40 ) ;
#170 = VERTEX_POINT ( 'NONE', #135 ) ;
#171 = DIRECTION ( 'NONE',  ( 0.000000000000000000, 1.000000000000000000, -0.000000000000000000 ) ) ;
#172 = CARTESIAN_POINT ( 'NONE',  ( 7.632783294297951215E-14, 0.000000000000000000, 612.8455987962108793 ) ) ;
#173 = DIRECTION ( 'NONE',  ( 0.000000000000000000, -1.000000000000000000, -0.000000000000000000 ) ) ;
#174 = DIRECTION ( 'NONE',  ( 1.000000000000000000, 0.000000000000000000, -0.000000000000000000 ) ) ;
#175 = CC_DESIGN_APPROVAL ( #154, ( #109 ) ) ;
#176 = ORIENTED_EDGE ( 'NONE', *, *, #115, .F. ) ;
#177 = DIRECTION ( 'NONE',  ( 1.000000000000000000, 0.000000000000000000, 0.000000000000000000 ) ) ;
#178 = PERSON_AND_ORGANIZATION_ROLE ( 'classification_officer' ) ;
#179 = LOCAL_TIME ( 8, 27, 45.00000000000000000, #164 ) ;
#180 = PERSON_AND_ORGANIZATION_ROLE ( 'creator' ) ;
#181 =( NAMED_UNIT ( * ) PLANE_ANGLE_UNIT ( ) SI_UNIT ( $, .RADIAN. ) );
#182 = AXIS2_PLACEMENT_3D ( 'NONE', #55, #36, #99 ) ;
#183 = SECURITY_CLASSIFICATION ( '', '', #81 ) ;
#184 = CALENDAR_DATE ( 2021, 26, 2 ) ;
#185 = VERTEX_POINT ( 'NONE', #193 ) ;
#186 = VERTEX_POINT ( 'NONE', #156 ) ;
#187 = EDGE_CURVE ( 'NONE', #185, #170, #189, .T. ) ;
#188 = ORIENTED_EDGE ( 'NONE', *, *, #101, .F. ) ;
#189 = LINE ( 'NONE', #122, #146 ) ;
#190 = MANIFOLD_SOLID_BREP ( 'Cut-Revolve1', #138 ) ;
#191 = ADVANCED_FACE ( 'NONE', ( #120 ), #118, .F. ) ;
#192 = DIRECTION ( 'NONE',  ( 0.000000000000000000, 0.000000000000000000, 1.000000000000000000 ) ) ;
#193 = CARTESIAN_POINT ( 'NONE',  ( 50.80000000000139693, 6.221205739668724913E-15, 15.00000000000001421 ) ) ;
#194 = CYLINDRICAL_SURFACE ( 'NONE', #64, 50.79999999999999716 ) ;
#195 = PERSON_AND_ORGANIZATION ( #39, #121 ) ;
#196 = APPLICATION_PROTOCOL_DEFINITION ( 'international standard', 'config_control_design', 1994, #143 ) ;
#197 = CALENDAR_DATE ( 2021, 26, 2 ) ;
#198 = ADVANCED_FACE ( 'NONE', ( #20 ), #145, .F. ) ;
#199 = CALENDAR_DATE ( 2021, 26, 2 ) ;
#200 = ORIENTED_EDGE ( 'NONE', *, *, #84, .T. ) ;
#201 = CC_DESIGN_APPROVAL ( #34, ( #14 ) ) ;
ENDSEC;
END-ISO-10303-21;
