ISO-10303-21;
HEADER;
FILE_DESCRIPTION (( 'STEP AP203' ),
    '1' );
FILE_NAME ('010-1812E_UVFS_PCV_window.STEP',
    '2021-02-26T06:27:31',
    ( '' ),
    ( '' ),
    'SwSTEP 2.0',
    'SolidWorks 2019',
    '' );
FILE_SCHEMA (( 'CONFIG_CONTROL_DESIGN' ));
ENDSEC;

DATA;
#1 = DIRECTION ( 'NONE',  ( 0.000000000000000000, 0.000000000000000000, 1.000000000000000000 ) ) ;
#2 = MANIFOLD_SOLID_BREP ( 'Cut-Revolve1', #21 ) ;
#3 = AXIS2_PLACEMENT_3D ( 'NONE', #46, #34, #30 ) ;
#4 = MECHANICAL_CONTEXT ( 'NONE', #200, 'mechanical' ) ;
#5 = COORDINATED_UNIVERSAL_TIME_OFFSET ( 2, 0, .AHEAD. ) ;
#6 = ADVANCED_FACE ( 'NONE', ( #101 ), #14, .F. ) ;
#7 = CIRCLE ( 'NONE', #60, 50.80000000000049454 ) ;
#8 = DIRECTION ( 'NONE',  ( 1.000000000000000000, 0.000000000000000000, 0.000000000000000000 ) ) ;
#9 = CC_DESIGN_APPROVAL ( #87, ( #154 ) ) ;
#10 = ORIENTED_EDGE ( 'NONE', *, *, #74, .F. ) ;
#11 = ORIENTED_EDGE ( 'NONE', *, *, #57, .T. ) ;
#12 = ORIENTED_EDGE ( 'NONE', *, *, #182, .T. ) ;
#13 = CARTESIAN_POINT ( 'NONE',  ( -50.79999999999999716, 0.000000000000000000, 0.000000000000000000 ) ) ;
#14 = PLANE ( 'NONE',  #50 ) ;
#15 = CALENDAR_DATE ( 2021, 26, 2 ) ;
#16 = CARTESIAN_POINT ( 'NONE',  ( 50.79999999999999716, 6.221205739668553730E-15, 15.00000000000000000 ) ) ;
#17 = VECTOR ( 'NONE', #167, 1000.000000000000000 ) ;
#18 = DIRECTION ( 'NONE',  ( 1.000000000000000000, 0.000000000000000000, 0.000000000000000000 ) ) ;
#19 = CC_DESIGN_PERSON_AND_ORGANIZATION_ASSIGNMENT ( #172, #65, ( #40 ) ) ;
#20 = CARTESIAN_POINT ( 'NONE',  ( 0.000000000000000000, 0.000000000000000000, 0.000000000000000000 ) ) ;
#21 = CLOSED_SHELL ( 'NONE', ( #25, #149, #37, #6, #64 ) ) ;
#22 = DATE_AND_TIME ( #123, #36 ) ;
#23 = FACE_OUTER_BOUND ( 'NONE', #151, .T. ) ;
#24 = VERTEX_POINT ( 'NONE', #13 ) ;
#25 = ADVANCED_FACE ( 'NONE', ( #51 ), #86, .F. ) ;
#26 = EDGE_LOOP ( 'NONE', ( #179, #85, #160 ) ) ;
#27 = CIRCLE ( 'NONE', #3, 500.0000000000000000 ) ;
#28 = APPROVAL_ROLE ( '' ) ;
#29 = FACE_OUTER_BOUND ( 'NONE', #134, .T. ) ;
#30 = DIRECTION ( 'NONE',  ( 1.000000000000000000, 1.224646799147353207E-16, 0.000000000000000000 ) ) ;
#31 = PERSON_AND_ORGANIZATION ( #114, #47 ) ;
#32 = APPROVAL_ROLE ( '' ) ;
#33 = CC_DESIGN_SECURITY_CLASSIFICATION ( #154, ( #138 ) ) ;
#34 = DIRECTION ( 'NONE',  ( 1.224646799147353207E-16, -1.000000000000000000, 0.000000000000000000 ) ) ;
#35 = AXIS2_PLACEMENT_3D ( 'NONE', #42, #84, #90 ) ;
#36 = LOCAL_TIME ( 8, 27, 31.00000000000000000, #130 ) ;
#37 = ADVANCED_FACE ( 'NONE', ( #117 ), #135, .T. ) ;
#38 = DIRECTION ( 'NONE',  ( 1.000000000000000000, 0.000000000000000000, 0.000000000000000000 ) ) ;
#39 = AXIS2_PLACEMENT_3D ( 'NONE', #181, #55, #120 ) ;
#40 = PRODUCT_DEFINITION ( 'UNKNOWN', '', #138, #56 ) ;
#41 = VERTEX_POINT ( 'NONE', #139 ) ;
#42 = CARTESIAN_POINT ( 'NONE',  ( 6.245004513516505540E-14, 0.000000000000000000, 15.00000000000001421 ) ) ;
#43 = PERSON_AND_ORGANIZATION_ROLE ( 'design_supplier' ) ;
#44 = PERSON_AND_ORGANIZATION ( #114, #47 ) ;
#45 = APPROVAL_ROLE ( '' ) ;
#46 = CARTESIAN_POINT ( 'NONE',  ( 6.245004513516505540E-14, 0.000000000000000000, 512.4126657012263877 ) ) ;
#47 = ORGANIZATION ( 'UNSPECIFIED', 'UNSPECIFIED', '' ) ;
#48 = APPROVAL_DATE_TIME ( #193, #106 ) ;
#49 = VERTEX_POINT ( 'NONE', #96 ) ;
#50 = AXIS2_PLACEMENT_3D ( 'NONE', #99, #177, #136 ) ;
#51 = FACE_OUTER_BOUND ( 'NONE', #26, .T. ) ;
#52 = ORIENTED_EDGE ( 'NONE', *, *, #195, .T. ) ;
#53 = CC_DESIGN_DATE_AND_TIME_ASSIGNMENT ( #22, #187, ( #40 ) ) ;
#54 = DIRECTION ( 'NONE',  ( 1.000000000000000000, 0.000000000000000000, 0.000000000000000000 ) ) ;
#55 = DIRECTION ( 'NONE',  ( 0.000000000000000000, 0.000000000000000000, 1.000000000000000000 ) ) ;
#56 = DESIGN_CONTEXT ( 'detailed design', #70, 'design' ) ;
#57 = EDGE_CURVE ( 'NONE', #41, #24, #129, .T. ) ;
#58 = DATE_TIME_ROLE ( 'classification_date' ) ;
#59 = DIRECTION ( 'NONE',  ( 0.000000000000000000, 0.000000000000000000, 1.000000000000000000 ) ) ;
#60 = AXIS2_PLACEMENT_3D ( 'NONE', #128, #122, #109 ) ;
#61 = APPLICATION_PROTOCOL_DEFINITION ( 'international standard', 'config_control_design', 1994, #70 ) ;
#62 = DATE_AND_TIME ( #140, #180 ) ;
#63 = CARTESIAN_POINT ( 'NONE',  ( -50.80000000000043769, 0.000000000000000000, 15.00000000000001421 ) ) ;
#64 = ADVANCED_FACE ( 'NONE', ( #23 ), #103, .F. ) ;
#65 = PERSON_AND_ORGANIZATION_ROLE ( 'creator' ) ;
#66 =( GEOMETRIC_REPRESENTATION_CONTEXT ( 3 ) GLOBAL_UNCERTAINTY_ASSIGNED_CONTEXT ( ( #89 ) ) GLOBAL_UNIT_ASSIGNED_CONTEXT ( ( #88, #192, #171 ) ) REPRESENTATION_CONTEXT ( 'NONE', 'WORKASPACE' ) );
#67 = CC_DESIGN_APPROVAL ( #106, ( #40 ) ) ;
#68 = ORIENTED_EDGE ( 'NONE', *, *, #91, .T. ) ;
#69 = CARTESIAN_POINT ( 'NONE',  ( 6.245004513516505540E-14, 0.000000000000000000, 512.4126657012263877 ) ) ;
#70 = APPLICATION_CONTEXT ( 'configuration controlled 3d designs of mechanical parts and assemblies' ) ;
#71 = ORIENTED_EDGE ( 'NONE', *, *, #74, .T. ) ;
#72 = DIRECTION ( 'NONE',  ( -1.000000000000000000, 0.000000000000000000, 0.000000000000000000 ) ) ;
#73 = CARTESIAN_POINT ( 'NONE',  ( 0.000000000000000000, 0.000000000000000000, 15.00000000000000000 ) ) ;
#74 = EDGE_CURVE ( 'NONE', #49, #112, #97, .T. ) ;
#75 = CARTESIAN_POINT ( 'NONE',  ( 0.000000000000000000, 0.000000000000000000, 0.000000000000000000 ) ) ;
#76 = PERSON_AND_ORGANIZATION ( #114, #47 ) ;
#77 = PERSON_AND_ORGANIZATION_ROLE ( 'design_owner' ) ;
#78 = LINE ( 'NONE', #16, #17 ) ;
#79 = CC_DESIGN_PERSON_AND_ORGANIZATION_ASSIGNMENT ( #76, #43, ( #138 ) ) ;
#80 = DIRECTION ( 'NONE',  ( -1.000000000000000000, 0.000000000000000000, 0.000000000000000000 ) ) ;
#81 = ADVANCED_BREP_SHAPE_REPRESENTATION ( '010-1812E_UVFS_PCV_window', ( #2, #108 ), #66 ) ;
#82 = VECTOR ( 'NONE', #147, 1000.000000000000000 ) ;
#83 = CIRCLE ( 'NONE', #104, 500.0000000000001137 ) ;
#84 = DIRECTION ( 'NONE',  ( -0.000000000000000000, -0.000000000000000000, -1.000000000000000000 ) ) ;
#85 = ORIENTED_EDGE ( 'NONE', *, *, #173, .T. ) ;
#86 = SPHERICAL_SURFACE ( 'NONE', #194, 500.0000000000000000 ) ;
#87 = APPROVAL ( #185, 'UNSPECIFIED' ) ;
#88 =( LENGTH_UNIT ( ) NAMED_UNIT ( * ) SI_UNIT ( .MILLI., .METRE. ) );
#89 = UNCERTAINTY_MEASURE_WITH_UNIT (LENGTH_MEASURE( 1.000000000000000082E-05 ), #88, 'distance_accuracy_value', 'NONE');
#90 = DIRECTION ( 'NONE',  ( 1.000000000000000000, 0.000000000000000000, 0.000000000000000000 ) ) ;
#91 = EDGE_CURVE ( 'NONE', #49, #111, #83, .T. ) ;
#92 = APPROVAL_DATE_TIME ( #201, #87 ) ;
#93 = CYLINDRICAL_SURFACE ( 'NONE', #113, 50.79999999999999716 ) ;
#94 = ORIENTED_EDGE ( 'NONE', *, *, #115, .F. ) ;
#95 = EDGE_LOOP ( 'NONE', ( #94, #174 ) ) ;
#96 = CARTESIAN_POINT ( 'NONE',  ( 50.80000000000055849, 6.221205739668623150E-15, 15.00000000000001421 ) ) ;
#97 = CIRCLE ( 'NONE', #35, 50.80000000000049454 ) ;
#98 = LOCAL_TIME ( 8, 27, 31.00000000000000000, #5 ) ;
#99 = CARTESIAN_POINT ( 'NONE',  ( 0.000000000000000000, 0.000000000000000000, 0.000000000000000000 ) ) ;
#100 = CC_DESIGN_PERSON_AND_ORGANIZATION_ASSIGNMENT ( #183, #155, ( #154 ) ) ;
#101 = FACE_OUTER_BOUND ( 'NONE', #95, .T. ) ;
#102 = PERSON_AND_ORGANIZATION ( #114, #47 ) ;
#103 = SPHERICAL_SURFACE ( 'NONE', #153, 500.0000000000000000 ) ;
#104 = AXIS2_PLACEMENT_3D ( 'NONE', #126, #142, #1 ) ;
#105 = DATE_AND_TIME ( #15, #191 ) ;
#106 = APPROVAL ( #169, 'UNSPECIFIED' ) ;
#107 = SECURITY_CLASSIFICATION_LEVEL ( 'unclassified' ) ;
#108 = AXIS2_PLACEMENT_3D ( 'NONE', #20, #144, #8 ) ;
#109 = DIRECTION ( 'NONE',  ( 1.000000000000000000, 0.000000000000000000, 0.000000000000000000 ) ) ;
#110 = CALENDAR_DATE ( 2021, 26, 2 ) ;
#111 = VERTEX_POINT ( 'NONE', #170 ) ;
#112 = VERTEX_POINT ( 'NONE', #63 ) ;
#113 = AXIS2_PLACEMENT_3D ( 'NONE', #158, #190, #80 ) ;
#114 = PERSON ( 'UNSPECIFIED', 'UNSPECIFIED', 'UNSPECIFIED', ('UNSPECIFIED'), ('UNSPECIFIED'), ('UNSPECIFIED') ) ;
#115 = EDGE_CURVE ( 'NONE', #24, #41, #133, .T. ) ;
#116 = ORIENTED_EDGE ( 'NONE', *, *, #115, .T. ) ;
#117 = FACE_OUTER_BOUND ( 'NONE', #163, .T. ) ;
#118 = CC_DESIGN_APPROVAL ( #137, ( #138 ) ) ;
#119 = ORIENTED_EDGE ( 'NONE', *, *, #146, .T. ) ;
#120 = DIRECTION ( 'NONE',  ( 1.000000000000000000, 0.000000000000000000, 0.000000000000000000 ) ) ;
#121 = LINE ( 'NONE', #186, #82 ) ;
#122 = DIRECTION ( 'NONE',  ( -0.000000000000000000, -0.000000000000000000, -1.000000000000000000 ) ) ;
#123 = CALENDAR_DATE ( 2021, 26, 2 ) ;
#124 = PERSON_AND_ORGANIZATION ( #114, #47 ) ;
#125 = APPROVAL_STATUS ( 'not_yet_approved' ) ;
#126 = CARTESIAN_POINT ( 'NONE',  ( 6.245004513516505540E-14, 0.000000000000000000, 512.4126657012263877 ) ) ;
#127 = CC_DESIGN_PERSON_AND_ORGANIZATION_ASSIGNMENT ( #31, #189, ( #138 ) ) ;
#128 = CARTESIAN_POINT ( 'NONE',  ( 6.245004513516505540E-14, 0.000000000000000000, 15.00000000000001421 ) ) ;
#129 = CIRCLE ( 'NONE', #39, 50.79999999999999716 ) ;
#130 = COORDINATED_UNIVERSAL_TIME_OFFSET ( 2, 0, .AHEAD. ) ;
#131 = APPROVAL_PERSON_ORGANIZATION ( #44, #87, #28 ) ;
#132 = PRODUCT ( '010-1812E_UVFS_PCV_window', '010-1812E_UVFS_PCV_window', '', ( #4 ) ) ;
#133 = CIRCLE ( 'NONE', #176, 50.79999999999999716 ) ;
#134 = EDGE_LOOP ( 'NONE', ( #119, #52, #11, #197 ) ) ;
#135 = CYLINDRICAL_SURFACE ( 'NONE', #143, 50.79999999999999716 ) ;
#136 = DIRECTION ( 'NONE',  ( 1.000000000000000000, 0.000000000000000000, -0.000000000000000000 ) ) ;
#137 = APPROVAL ( #125, 'UNSPECIFIED' ) ;
#138 = PRODUCT_DEFINITION_FORMATION_WITH_SPECIFIED_SOURCE ( 'ANY', '', #132, .NOT_KNOWN. ) ;
#139 = CARTESIAN_POINT ( 'NONE',  ( 50.79999999999999716, 6.221205739668553730E-15, 0.000000000000000000 ) ) ;
#140 = CALENDAR_DATE ( 2021, 26, 2 ) ;
#141 = COORDINATED_UNIVERSAL_TIME_OFFSET ( 2, 0, .AHEAD. ) ;
#142 = DIRECTION ( 'NONE',  ( 0.000000000000000000, 1.000000000000000000, -0.000000000000000000 ) ) ;
#143 = AXIS2_PLACEMENT_3D ( 'NONE', #73, #150, #72 ) ;
#144 = DIRECTION ( 'NONE',  ( 0.000000000000000000, 0.000000000000000000, 1.000000000000000000 ) ) ;
#145 = APPROVAL_DATE_TIME ( #62, #137 ) ;
#146 = EDGE_CURVE ( 'NONE', #112, #49, #7, .T. ) ;
#147 = DIRECTION ( 'NONE',  ( -0.000000000000000000, -0.000000000000000000, -1.000000000000000000 ) ) ;
#148 = LOCAL_TIME ( 8, 27, 31.00000000000000000, #157 ) ;
#149 = ADVANCED_FACE ( 'NONE', ( #29 ), #93, .T. ) ;
#150 = DIRECTION ( 'NONE',  ( -0.000000000000000000, -0.000000000000000000, -1.000000000000000000 ) ) ;
#151 = EDGE_LOOP ( 'NONE', ( #162, #10, #68 ) ) ;
#152 = DIRECTION ( 'NONE',  ( 0.000000000000000000, -1.000000000000000000, -0.000000000000000000 ) ) ;
#153 = AXIS2_PLACEMENT_3D ( 'NONE', #69, #196, #38 ) ;
#154 = SECURITY_CLASSIFICATION ( '', '', #107 ) ;
#155 = PERSON_AND_ORGANIZATION_ROLE ( 'classification_officer' ) ;
#156 = COORDINATED_UNIVERSAL_TIME_OFFSET ( 2, 0, .AHEAD. ) ;
#157 = COORDINATED_UNIVERSAL_TIME_OFFSET ( 2, 0, .AHEAD. ) ;
#158 = CARTESIAN_POINT ( 'NONE',  ( 0.000000000000000000, 0.000000000000000000, 15.00000000000000000 ) ) ;
#159 = CC_DESIGN_DATE_AND_TIME_ASSIGNMENT ( #105, #58, ( #154 ) ) ;
#160 = ORIENTED_EDGE ( 'NONE', *, *, #91, .F. ) ;
#161 = APPROVAL_PERSON_ORGANIZATION ( #124, #106, #32 ) ;
#162 = ORIENTED_EDGE ( 'NONE', *, *, #173, .F. ) ;
#163 = EDGE_LOOP ( 'NONE', ( #198, #71, #12, #116 ) ) ;
#164 = CARTESIAN_POINT ( 'NONE',  ( 6.245004513516505540E-14, 0.000000000000000000, 512.4126657012263877 ) ) ;
#165 = SHAPE_DEFINITION_REPRESENTATION ( #175, #81 ) ;
#166 = PRODUCT_RELATED_PRODUCT_CATEGORY ( 'detail', '', ( #132 ) ) ;
#167 = DIRECTION ( 'NONE',  ( -0.000000000000000000, -0.000000000000000000, -1.000000000000000000 ) ) ;
#168 = CALENDAR_DATE ( 2021, 26, 2 ) ;
#169 = APPROVAL_STATUS ( 'not_yet_approved' ) ;
#170 = CARTESIAN_POINT ( 'NONE',  ( 9.306621511384889292E-14, 0.000000000000000000, 12.41266570122634505 ) ) ;
#171 =( NAMED_UNIT ( * ) SI_UNIT ( $, .STERADIAN. ) SOLID_ANGLE_UNIT ( ) );
#172 = PERSON_AND_ORGANIZATION ( #114, #47 ) ;
#173 = EDGE_CURVE ( 'NONE', #112, #111, #27, .T. ) ;
#174 = ORIENTED_EDGE ( 'NONE', *, *, #57, .F. ) ;
#175 = PRODUCT_DEFINITION_SHAPE ( 'NONE', 'NONE',  #40 ) ;
#176 = AXIS2_PLACEMENT_3D ( 'NONE', #75, #59, #18 ) ;
#177 = DIRECTION ( 'NONE',  ( 0.000000000000000000, 0.000000000000000000, 1.000000000000000000 ) ) ;
#178 = CC_DESIGN_PERSON_AND_ORGANIZATION_ASSIGNMENT ( #188, #77, ( #132 ) ) ;
#179 = ORIENTED_EDGE ( 'NONE', *, *, #146, .F. ) ;
#180 = LOCAL_TIME ( 8, 27, 31.00000000000000000, #141 ) ;
#181 = CARTESIAN_POINT ( 'NONE',  ( 0.000000000000000000, 0.000000000000000000, 0.000000000000000000 ) ) ;
#182 = EDGE_CURVE ( 'NONE', #112, #24, #121, .T. ) ;
#183 = PERSON_AND_ORGANIZATION ( #114, #47 ) ;
#184 = APPLICATION_PROTOCOL_DEFINITION ( 'international standard', 'config_control_design', 1994, #200 ) ;
#185 = APPROVAL_STATUS ( 'not_yet_approved' ) ;
#186 = CARTESIAN_POINT ( 'NONE',  ( -50.79999999999999716, 0.000000000000000000, 15.00000000000000000 ) ) ;
#187 = DATE_TIME_ROLE ( 'creation_date' ) ;
#188 = PERSON_AND_ORGANIZATION ( #114, #47 ) ;
#189 = PERSON_AND_ORGANIZATION_ROLE ( 'creator' ) ;
#190 = DIRECTION ( 'NONE',  ( -0.000000000000000000, -0.000000000000000000, -1.000000000000000000 ) ) ;
#191 = LOCAL_TIME ( 8, 27, 31.00000000000000000, #156 ) ;
#192 =( NAMED_UNIT ( * ) PLANE_ANGLE_UNIT ( ) SI_UNIT ( $, .RADIAN. ) );
#193 = DATE_AND_TIME ( #110, #148 ) ;
#194 = AXIS2_PLACEMENT_3D ( 'NONE', #164, #152, #54 ) ;
#195 = EDGE_CURVE ( 'NONE', #49, #41, #78, .T. ) ;
#196 = DIRECTION ( 'NONE',  ( 0.000000000000000000, -1.000000000000000000, -0.000000000000000000 ) ) ;
#197 = ORIENTED_EDGE ( 'NONE', *, *, #182, .F. ) ;
#198 = ORIENTED_EDGE ( 'NONE', *, *, #195, .F. ) ;
#199 = APPROVAL_PERSON_ORGANIZATION ( #102, #137, #45 ) ;
#200 = APPLICATION_CONTEXT ( 'configuration controlled 3d designs of mechanical parts and assemblies' ) ;
#201 = DATE_AND_TIME ( #168, #98 ) ;
ENDSEC;
END-ISO-10303-21;
