ISO-10303-21;
HEADER;
FILE_DESCRIPTION (( 'STEP AP203' ),
    '1' );
FILE_NAME ('010-1810E_UVFS_PCV_window.STEP',
    '2021-02-26T06:27:13',
    ( '' ),
    ( '' ),
    'SwSTEP 2.0',
    'SolidWorks 2019',
    '' );
FILE_SCHEMA (( 'CONFIG_CONTROL_DESIGN' ));
ENDSEC;

DATA;
#1 = DATE_AND_TIME ( #41, #81 ) ;
#2 = CARTESIAN_POINT ( 'NONE',  ( 0.000000000000000000, 0.000000000000000000, 0.000000000000000000 ) ) ;
#3 = PERSON_AND_ORGANIZATION ( #119, #126 ) ;
#4 = COORDINATED_UNIVERSAL_TIME_OFFSET ( 2, 0, .AHEAD. ) ;
#5 = DIRECTION ( 'NONE',  ( 1.224646799147353207E-16, -1.000000000000000000, 0.000000000000000000 ) ) ;
#6 = ORIENTED_EDGE ( 'NONE', *, *, #27, .T. ) ;
#7 = LOCAL_TIME ( 8, 27, 13.00000000000000000, #163 ) ;
#8 = DIRECTION ( 'NONE',  ( 1.000000000000000000, 0.000000000000000000, -0.000000000000000000 ) ) ;
#9 = VERTEX_POINT ( 'NONE', #181 ) ;
#10 = EDGE_CURVE ( 'NONE', #173, #101, #85, .T. ) ;
#11 = APPROVAL_PERSON_ORGANIZATION ( #60, #23, #122 ) ;
#12 = CARTESIAN_POINT ( 'NONE',  ( 50.79999999999999716, 6.221205739668553730E-15, 15.00000000000000000 ) ) ;
#13 = DIRECTION ( 'NONE',  ( -1.000000000000000000, 0.000000000000000000, 0.000000000000000000 ) ) ;
#14 = ORIENTED_EDGE ( 'NONE', *, *, #48, .F. ) ;
#15 = PERSON_AND_ORGANIZATION ( #119, #126 ) ;
#16 = SECURITY_CLASSIFICATION_LEVEL ( 'unclassified' ) ;
#17 = CC_DESIGN_DATE_AND_TIME_ASSIGNMENT ( #103, #53, ( #52 ) ) ;
#18 = DIRECTION ( 'NONE',  ( -0.000000000000000000, -0.000000000000000000, -1.000000000000000000 ) ) ;
#19 = DIRECTION ( 'NONE',  ( 0.000000000000000000, 0.000000000000000000, 1.000000000000000000 ) ) ;
#20 = LOCAL_TIME ( 8, 27, 13.00000000000000000, #4 ) ;
#21 = APPLICATION_PROTOCOL_DEFINITION ( 'international standard', 'config_control_design', 1994, #57 ) ;
#22 = CLOSED_SHELL ( 'NONE', ( #56, #31, #146, #44, #118 ) ) ;
#23 = APPROVAL ( #172, 'UNSPECIFIED' ) ;
#24 = SPHERICAL_SURFACE ( 'NONE', #190, 400.0000000000000000 ) ;
#25 = ORIENTED_EDGE ( 'NONE', *, *, #95, .F. ) ;
#26 = DIRECTION ( 'NONE',  ( 1.000000000000000000, 0.000000000000000000, 0.000000000000000000 ) ) ;
#27 = EDGE_CURVE ( 'NONE', #173, #9, #63, .T. ) ;
#28 = DATE_AND_TIME ( #180, #108 ) ;
#29 = ORIENTED_EDGE ( 'NONE', *, *, #167, .F. ) ;
#30 = DATE_TIME_ROLE ( 'classification_date' ) ;
#31 = ADVANCED_FACE ( 'NONE', ( #128 ), #86, .T. ) ;
#32 = CARTESIAN_POINT ( 'NONE',  ( -50.79999999999999716, 0.000000000000000000, 15.00000000000000000 ) ) ;
#33 = APPLICATION_CONTEXT ( 'configuration controlled 3d designs of mechanical parts and assemblies' ) ;
#34 = CIRCLE ( 'NONE', #132, 50.79999999999999716 ) ;
#35 = PERSON_AND_ORGANIZATION ( #119, #126 ) ;
#36 = CARTESIAN_POINT ( 'NONE',  ( 0.000000000000000000, 0.000000000000000000, 0.000000000000000000 ) ) ;
#37 = ORIENTED_EDGE ( 'NONE', *, *, #72, .F. ) ;
#38 = EDGE_LOOP ( 'NONE', ( #37, #144 ) ) ;
#39 = CARTESIAN_POINT ( 'NONE',  ( 4.857225732735059864E-14, 0.000000000000000000, 411.7610868016167274 ) ) ;
#40 = VECTOR ( 'NONE', #179, 1000.000000000000000 ) ;
#41 = CALENDAR_DATE ( 2021, 26, 2 ) ;
#42 = PRODUCT_DEFINITION_FORMATION_WITH_SPECIFIED_SOURCE ( 'ANY', '', #155, .NOT_KNOWN. ) ;
#43 = ORIENTED_EDGE ( 'NONE', *, *, #151, .T. ) ;
#44 = ADVANCED_FACE ( 'NONE', ( #67 ), #159, .F. ) ;
#45 = PERSON_AND_ORGANIZATION_ROLE ( 'design_supplier' ) ;
#46 = FACE_OUTER_BOUND ( 'NONE', #65, .T. ) ;
#47 = VECTOR ( 'NONE', #18, 1000.000000000000000 ) ;
#48 = EDGE_CURVE ( 'NONE', #9, #173, #182, .T. ) ;
#49 = DIRECTION ( 'NONE',  ( 1.000000000000000000, 0.000000000000000000, 0.000000000000000000 ) ) ;
#50 = DIRECTION ( 'NONE',  ( 0.000000000000000000, -1.000000000000000000, -0.000000000000000000 ) ) ;
#51 = APPROVAL_ROLE ( '' ) ;
#52 = PRODUCT_DEFINITION ( 'UNKNOWN', '', #42, #80 ) ;
#53 = DATE_TIME_ROLE ( 'creation_date' ) ;
#54 = CC_DESIGN_APPROVAL ( #131, ( #42 ) ) ;
#55 =( NAMED_UNIT ( * ) PLANE_ANGLE_UNIT ( ) SI_UNIT ( $, .RADIAN. ) );
#56 = ADVANCED_FACE ( 'NONE', ( #98 ), #156, .F. ) ;
#57 = APPLICATION_CONTEXT ( 'configuration controlled 3d designs of mechanical parts and assemblies' ) ;
#58 = CALENDAR_DATE ( 2021, 26, 2 ) ;
#59 = CC_DESIGN_PERSON_AND_ORGANIZATION_ASSIGNMENT ( #15, #104, ( #170 ) ) ;
#60 = PERSON_AND_ORGANIZATION ( #119, #126 ) ;
#61 = ORIENTED_EDGE ( 'NONE', *, *, #95, .T. ) ;
#62 = CARTESIAN_POINT ( 'NONE',  ( -50.79999999999999716, 0.000000000000000000, 0.000000000000000000 ) ) ;
#63 = CIRCLE ( 'NONE', #141, 50.79999999999994742 ) ;
#64 = DIRECTION ( 'NONE',  ( 0.000000000000000000, 0.000000000000000000, 1.000000000000000000 ) ) ;
#65 = EDGE_LOOP ( 'NONE', ( #94, #6, #43, #199 ) ) ;
#66 = MANIFOLD_SOLID_BREP ( 'Cut-Revolve1', #22 ) ;
#67 = FACE_OUTER_BOUND ( 'NONE', #38, .T. ) ;
#68 = APPROVAL_DATE_TIME ( #28, #154 ) ;
#69 = APPROVAL_STATUS ( 'not_yet_approved' ) ;
#70 = AXIS2_PLACEMENT_3D ( 'NONE', #191, #82, #127 ) ;
#71 = CARTESIAN_POINT ( 'NONE',  ( 7.306519331029765352E-14, 0.000000000000000000, 11.76108680161669362 ) ) ;
#72 = EDGE_CURVE ( 'NONE', #116, #101, #34, .T. ) ;
#73 =( LENGTH_UNIT ( ) NAMED_UNIT ( * ) SI_UNIT ( .MILLI., .METRE. ) );
#74 = AXIS2_PLACEMENT_3D ( 'NONE', #39, #142, #49 ) ;
#75 = APPROVAL_DATE_TIME ( #78, #23 ) ;
#76 = CC_DESIGN_PERSON_AND_ORGANIZATION_ASSIGNMENT ( #130, #183, ( #42 ) ) ;
#77 = PERSON_AND_ORGANIZATION_ROLE ( 'design_owner' ) ;
#78 = DATE_AND_TIME ( #188, #148 ) ;
#79 = PRODUCT_DEFINITION_SHAPE ( 'NONE', 'NONE',  #52 ) ;
#80 = DESIGN_CONTEXT ( 'detailed design', #57, 'design' ) ;
#81 = LOCAL_TIME ( 8, 27, 13.00000000000000000, #164 ) ;
#82 = DIRECTION ( 'NONE',  ( -0.000000000000000000, -0.000000000000000000, -1.000000000000000000 ) ) ;
#83 = CC_DESIGN_PERSON_AND_ORGANIZATION_ASSIGNMENT ( #3, #137, ( #52 ) ) ;
#84 = ADVANCED_BREP_SHAPE_REPRESENTATION ( '010-1810E_UVFS_PCV_window', ( #66, #105 ), #184 ) ;
#85 = LINE ( 'NONE', #12, #40 ) ;
#86 = CYLINDRICAL_SURFACE ( 'NONE', #138, 50.79999999999999716 ) ;
#87 = ORIENTED_EDGE ( 'NONE', *, *, #151, .F. ) ;
#88 = PERSON_AND_ORGANIZATION ( #119, #126 ) ;
#89 = APPROVAL_DATE_TIME ( #133, #131 ) ;
#90 =( NAMED_UNIT ( * ) SI_UNIT ( $, .STERADIAN. ) SOLID_ANGLE_UNIT ( ) );
#91 = CARTESIAN_POINT ( 'NONE',  ( 4.857225732735059864E-14, 0.000000000000000000, 411.7610868016167274 ) ) ;
#92 = PRODUCT_RELATED_PRODUCT_CATEGORY ( 'detail', '', ( #155 ) ) ;
#93 = DIRECTION ( 'NONE',  ( 1.000000000000000000, 0.000000000000000000, 0.000000000000000000 ) ) ;
#94 = ORIENTED_EDGE ( 'NONE', *, *, #10, .F. ) ;
#95 = EDGE_CURVE ( 'NONE', #9, #175, #123, .T. ) ;
#96 = CARTESIAN_POINT ( 'NONE',  ( 0.000000000000000000, 0.000000000000000000, 0.000000000000000000 ) ) ;
#97 = CC_DESIGN_PERSON_AND_ORGANIZATION_ASSIGNMENT ( #88, #45, ( #42 ) ) ;
#98 = FACE_OUTER_BOUND ( 'NONE', #192, .T. ) ;
#99 = CIRCLE ( 'NONE', #129, 50.79999999999999716 ) ;
#100 = CARTESIAN_POINT ( 'NONE',  ( 4.857225732735059864E-14, 0.000000000000000000, 15.00000000000001421 ) ) ;
#101 = VERTEX_POINT ( 'NONE', #112 ) ;
#102 = CC_DESIGN_APPROVAL ( #23, ( #52 ) ) ;
#103 = DATE_AND_TIME ( #58, #20 ) ;
#104 = PERSON_AND_ORGANIZATION_ROLE ( 'classification_officer' ) ;
#105 = AXIS2_PLACEMENT_3D ( 'NONE', #36, #169, #93 ) ;
#106 = CYLINDRICAL_SURFACE ( 'NONE', #196, 50.79999999999999716 ) ;
#107 = DIRECTION ( 'NONE',  ( 1.000000000000000000, 0.000000000000000000, 0.000000000000000000 ) ) ;
#108 = LOCAL_TIME ( 8, 27, 13.00000000000000000, #115 ) ;
#109 = MECHANICAL_CONTEXT ( 'NONE', #33, 'mechanical' ) ;
#110 = ORIENTED_EDGE ( 'NONE', *, *, #167, .T. ) ;
#111 = DIRECTION ( 'NONE',  ( 1.000000000000000000, 0.000000000000000000, 0.000000000000000000 ) ) ;
#112 = CARTESIAN_POINT ( 'NONE',  ( 50.79999999999999716, 6.221205739668553730E-15, 0.000000000000000000 ) ) ;
#113 = AXIS2_PLACEMENT_3D ( 'NONE', #96, #140, #8 ) ;
#114 = EDGE_LOOP ( 'NONE', ( #176, #157, #125, #87 ) ) ;
#115 = COORDINATED_UNIVERSAL_TIME_OFFSET ( 2, 0, .AHEAD. ) ;
#116 = VERTEX_POINT ( 'NONE', #62 ) ;
#117 = APPROVAL_ROLE ( '' ) ;
#118 = ADVANCED_FACE ( 'NONE', ( #124 ), #24, .F. ) ;
#119 = PERSON ( 'UNSPECIFIED', 'UNSPECIFIED', 'UNSPECIFIED', ('UNSPECIFIED'), ('UNSPECIFIED'), ('UNSPECIFIED') ) ;
#120 = CC_DESIGN_SECURITY_CLASSIFICATION ( #170, ( #42 ) ) ;
#121 = CARTESIAN_POINT ( 'NONE',  ( 0.000000000000000000, 0.000000000000000000, 15.00000000000000000 ) ) ;
#122 = APPROVAL_ROLE ( '' ) ;
#123 = CIRCLE ( 'NONE', #178, 400.0000000000000000 ) ;
#124 = FACE_OUTER_BOUND ( 'NONE', #193, .T. ) ;
#125 = ORIENTED_EDGE ( 'NONE', *, *, #187, .T. ) ;
#126 = ORGANIZATION ( 'UNSPECIFIED', 'UNSPECIFIED', '' ) ;
#127 = DIRECTION ( 'NONE',  ( 1.000000000000000000, 0.000000000000000000, 0.000000000000000000 ) ) ;
#128 = FACE_OUTER_BOUND ( 'NONE', #114, .T. ) ;
#129 = AXIS2_PLACEMENT_3D ( 'NONE', #2, #19, #134 ) ;
#130 = PERSON_AND_ORGANIZATION ( #119, #126 ) ;
#131 = APPROVAL ( #69, 'UNSPECIFIED' ) ;
#132 = AXIS2_PLACEMENT_3D ( 'NONE', #139, #64, #111 ) ;
#133 = DATE_AND_TIME ( #145, #7 ) ;
#134 = DIRECTION ( 'NONE',  ( 1.000000000000000000, 0.000000000000000000, 0.000000000000000000 ) ) ;
#135 = CC_DESIGN_APPROVAL ( #154, ( #170 ) ) ;
#136 = COORDINATED_UNIVERSAL_TIME_OFFSET ( 2, 0, .AHEAD. ) ;
#137 = PERSON_AND_ORGANIZATION_ROLE ( 'creator' ) ;
#138 = AXIS2_PLACEMENT_3D ( 'NONE', #197, #143, #13 ) ;
#139 = CARTESIAN_POINT ( 'NONE',  ( 0.000000000000000000, 0.000000000000000000, 0.000000000000000000 ) ) ;
#140 = DIRECTION ( 'NONE',  ( 0.000000000000000000, 0.000000000000000000, 1.000000000000000000 ) ) ;
#141 = AXIS2_PLACEMENT_3D ( 'NONE', #100, #161, #26 ) ;
#142 = DIRECTION ( 'NONE',  ( 0.000000000000000000, -1.000000000000000000, -0.000000000000000000 ) ) ;
#143 = DIRECTION ( 'NONE',  ( -0.000000000000000000, -0.000000000000000000, -1.000000000000000000 ) ) ;
#144 = ORIENTED_EDGE ( 'NONE', *, *, #187, .F. ) ;
#145 = CALENDAR_DATE ( 2021, 26, 2 ) ;
#146 = ADVANCED_FACE ( 'NONE', ( #46 ), #106, .T. ) ;
#147 = PERSON_AND_ORGANIZATION ( #119, #126 ) ;
#148 = LOCAL_TIME ( 8, 27, 13.00000000000000000, #136 ) ;
#149 = DIRECTION ( 'NONE',  ( -0.000000000000000000, -0.000000000000000000, -1.000000000000000000 ) ) ;
#150 = CARTESIAN_POINT ( 'NONE',  ( 50.79999999999999716, 6.221205739668553730E-15, 15.00000000000001421 ) ) ;
#151 = EDGE_CURVE ( 'NONE', #9, #116, #168, .T. ) ;
#152 = APPROVAL_PERSON_ORGANIZATION ( #147, #131, #117 ) ;
#153 = APPLICATION_PROTOCOL_DEFINITION ( 'international standard', 'config_control_design', 1994, #33 ) ;
#154 = APPROVAL ( #198, 'UNSPECIFIED' ) ;
#155 = PRODUCT ( '010-1810E_UVFS_PCV_window', '010-1810E_UVFS_PCV_window', '', ( #109 ) ) ;
#156 = SPHERICAL_SURFACE ( 'NONE', #74, 400.0000000000000000 ) ;
#157 = ORIENTED_EDGE ( 'NONE', *, *, #10, .T. ) ;
#158 = UNCERTAINTY_MEASURE_WITH_UNIT (LENGTH_MEASURE( 1.000000000000000082E-05 ), #73, 'distance_accuracy_value', 'NONE');
#159 = PLANE ( 'NONE',  #113 ) ;
#160 = SHAPE_DEFINITION_REPRESENTATION ( #79, #84 ) ;
#161 = DIRECTION ( 'NONE',  ( -0.000000000000000000, -0.000000000000000000, -1.000000000000000000 ) ) ;
#162 = ORIENTED_EDGE ( 'NONE', *, *, #27, .F. ) ;
#163 = COORDINATED_UNIVERSAL_TIME_OFFSET ( 2, 0, .AHEAD. ) ;
#164 = COORDINATED_UNIVERSAL_TIME_OFFSET ( 2, 0, .AHEAD. ) ;
#165 = AXIS2_PLACEMENT_3D ( 'NONE', #91, #186, #185 ) ;
#166 = DIRECTION ( 'NONE',  ( -1.000000000000000000, 0.000000000000000000, 0.000000000000000000 ) ) ;
#167 = EDGE_CURVE ( 'NONE', #173, #175, #189, .T. ) ;
#168 = LINE ( 'NONE', #32, #47 ) ;
#169 = DIRECTION ( 'NONE',  ( 0.000000000000000000, 0.000000000000000000, 1.000000000000000000 ) ) ;
#170 = SECURITY_CLASSIFICATION ( '', '', #16 ) ;
#171 = CC_DESIGN_PERSON_AND_ORGANIZATION_ASSIGNMENT ( #35, #77, ( #155 ) ) ;
#172 = APPROVAL_STATUS ( 'not_yet_approved' ) ;
#173 = VERTEX_POINT ( 'NONE', #150 ) ;
#174 = DIRECTION ( 'NONE',  ( 1.000000000000000000, 1.224646799147353207E-16, 0.000000000000000000 ) ) ;
#175 = VERTEX_POINT ( 'NONE', #71 ) ;
#176 = ORIENTED_EDGE ( 'NONE', *, *, #48, .T. ) ;
#177 = CARTESIAN_POINT ( 'NONE',  ( 4.857225732735059864E-14, 0.000000000000000000, 411.7610868016167274 ) ) ;
#178 = AXIS2_PLACEMENT_3D ( 'NONE', #177, #5, #174 ) ;
#179 = DIRECTION ( 'NONE',  ( -0.000000000000000000, -0.000000000000000000, -1.000000000000000000 ) ) ;
#180 = CALENDAR_DATE ( 2021, 26, 2 ) ;
#181 = CARTESIAN_POINT ( 'NONE',  ( -50.79999999999989768, 0.000000000000000000, 15.00000000000001421 ) ) ;
#182 = CIRCLE ( 'NONE', #70, 50.79999999999994742 ) ;
#183 = PERSON_AND_ORGANIZATION_ROLE ( 'creator' ) ;
#184 =( GEOMETRIC_REPRESENTATION_CONTEXT ( 3 ) GLOBAL_UNCERTAINTY_ASSIGNED_CONTEXT ( ( #158 ) ) GLOBAL_UNIT_ASSIGNED_CONTEXT ( ( #73, #55, #90 ) ) REPRESENTATION_CONTEXT ( 'NONE', 'WORKASPACE' ) );
#185 = DIRECTION ( 'NONE',  ( 0.000000000000000000, 0.000000000000000000, 1.000000000000000000 ) ) ;
#186 = DIRECTION ( 'NONE',  ( 0.000000000000000000, 1.000000000000000000, -0.000000000000000000 ) ) ;
#187 = EDGE_CURVE ( 'NONE', #101, #116, #99, .T. ) ;
#188 = CALENDAR_DATE ( 2021, 26, 2 ) ;
#189 = CIRCLE ( 'NONE', #165, 400.0000000000000000 ) ;
#190 = AXIS2_PLACEMENT_3D ( 'NONE', #194, #50, #107 ) ;
#191 = CARTESIAN_POINT ( 'NONE',  ( 4.857225732735059864E-14, 0.000000000000000000, 15.00000000000001421 ) ) ;
#192 = EDGE_LOOP ( 'NONE', ( #14, #61, #29 ) ) ;
#193 = EDGE_LOOP ( 'NONE', ( #25, #162, #110 ) ) ;
#194 = CARTESIAN_POINT ( 'NONE',  ( 4.857225732735059864E-14, 0.000000000000000000, 411.7610868016167274 ) ) ;
#195 = CC_DESIGN_DATE_AND_TIME_ASSIGNMENT ( #1, #30, ( #170 ) ) ;
#196 = AXIS2_PLACEMENT_3D ( 'NONE', #121, #149, #166 ) ;
#197 = CARTESIAN_POINT ( 'NONE',  ( 0.000000000000000000, 0.000000000000000000, 15.00000000000000000 ) ) ;
#198 = APPROVAL_STATUS ( 'not_yet_approved' ) ;
#199 = ORIENTED_EDGE ( 'NONE', *, *, #72, .T. ) ;
#200 = PERSON_AND_ORGANIZATION ( #119, #126 ) ;
#201 = APPROVAL_PERSON_ORGANIZATION ( #200, #154, #51 ) ;
ENDSEC;
END-ISO-10303-21;
