ISO-10303-21;
HEADER;
FILE_DESCRIPTION (( 'STEP AP203' ),
    '1' );
FILE_NAME ('010-1808E_UVFS_PCV_window.STEP',
    '2021-02-26T06:26:54',
    ( '' ),
    ( '' ),
    'SwSTEP 2.0',
    'SolidWorks 2019',
    '' );
FILE_SCHEMA (( 'CONFIG_CONTROL_DESIGN' ));
ENDSEC;

DATA;
#1 = VECTOR ( 'NONE', #175, 1000.000000000000000 ) ;
#2 = DIRECTION ( 'NONE',  ( -0.000000000000000000, -0.000000000000000000, -1.000000000000000000 ) ) ;
#3 = ORIENTED_EDGE ( 'NONE', *, *, #201, .T. ) ;
#4 = CARTESIAN_POINT ( 'NONE',  ( 0.000000000000000000, 0.000000000000000000, 15.00000000000000000 ) ) ;
#5 = DIRECTION ( 'NONE',  ( 1.000000000000000000, 1.224646799147353207E-16, 0.000000000000000000 ) ) ;
#6 = CARTESIAN_POINT ( 'NONE',  ( 50.79999999999998295, 6.221205739668552942E-15, 15.00000000000001421 ) ) ;
#7 = APPLICATION_PROTOCOL_DEFINITION ( 'international standard', 'config_control_design', 1994, #39 ) ;
#8 = APPROVAL_ROLE ( '' ) ;
#9 = LOCAL_TIME ( 8, 26, 54.00000000000000000, #135 ) ;
#10 = DATE_AND_TIME ( #63, #199 ) ;
#11 = DATE_AND_TIME ( #106, #59 ) ;
#12 = SECURITY_CLASSIFICATION ( '', '', #119 ) ;
#13 = APPROVAL_ROLE ( '' ) ;
#14 = ADVANCED_FACE ( 'NONE', ( #84 ), #23, .T. ) ;
#15 = DATE_AND_TIME ( #19, #149 ) ;
#16 = VERTEX_POINT ( 'NONE', #146 ) ;
#17 = CC_DESIGN_DATE_AND_TIME_ASSIGNMENT ( #10, #194, ( #156 ) ) ;
#18 = CIRCLE ( 'NONE', #93, 300.0000000000000000 ) ;
#19 = CALENDAR_DATE ( 2021, 26, 2 ) ;
#20 = EDGE_LOOP ( 'NONE', ( #85, #27, #200 ) ) ;
#21 = PERSON ( 'UNSPECIFIED', 'UNSPECIFIED', 'UNSPECIFIED', ('UNSPECIFIED'), ('UNSPECIFIED'), ('UNSPECIFIED') ) ;
#22 = PRODUCT ( '010-1808E_UVFS_PCV_window', '010-1808E_UVFS_PCV_window', '', ( #61 ) ) ;
#23 = CYLINDRICAL_SURFACE ( 'NONE', #123, 50.79999999999999716 ) ;
#24 = CARTESIAN_POINT ( 'NONE',  ( 0.000000000000000000, 0.000000000000000000, 0.000000000000000000 ) ) ;
#25 = CARTESIAN_POINT ( 'NONE',  ( 3.469446951953614189E-14, 0.000000000000000000, 15.00000000000001421 ) ) ;
#26 = EDGE_CURVE ( 'NONE', #51, #16, #48, .T. ) ;
#27 = ORIENTED_EDGE ( 'NONE', *, *, #55, .T. ) ;
#28 = LINE ( 'NONE', #159, #1 ) ;
#29 = CIRCLE ( 'NONE', #104, 50.79999999999999716 ) ;
#30 = PRODUCT_DEFINITION_FORMATION_WITH_SPECIFIED_SOURCE ( 'ANY', '', #22, .NOT_KNOWN. ) ;
#31 = ORIENTED_EDGE ( 'NONE', *, *, #179, .T. ) ;
#32 = CARTESIAN_POINT ( 'NONE',  ( 0.000000000000000000, 0.000000000000000000, 0.000000000000000000 ) ) ;
#33 = CC_DESIGN_APPROVAL ( #195, ( #12 ) ) ;
#34 = CARTESIAN_POINT ( 'NONE',  ( 3.469446951953614189E-14, 0.000000000000000000, 15.00000000000001421 ) ) ;
#35 = DIRECTION ( 'NONE',  ( 0.000000000000000000, 1.000000000000000000, -0.000000000000000000 ) ) ;
#36 = EDGE_CURVE ( 'NONE', #188, #51, #28, .T. ) ;
#37 = ORIENTED_EDGE ( 'NONE', *, *, #201, .F. ) ;
#38 = VERTEX_POINT ( 'NONE', #86 ) ;
#39 = APPLICATION_CONTEXT ( 'configuration controlled 3d designs of mechanical parts and assemblies' ) ;
#40 = AXIS2_PLACEMENT_3D ( 'NONE', #24, #125, #71 ) ;
#41 =( NAMED_UNIT ( * ) PLANE_ANGLE_UNIT ( ) SI_UNIT ( $, .RADIAN. ) );
#42 = CALENDAR_DATE ( 2021, 26, 2 ) ;
#43 = DATE_TIME_ROLE ( 'classification_date' ) ;
#44 = CLOSED_SHELL ( 'NONE', ( #122, #14, #166, #66, #137 ) ) ;
#45 = APPROVAL_DATE_TIME ( #132, #176 ) ;
#46 = APPROVAL_STATUS ( 'not_yet_approved' ) ;
#47 =( GEOMETRIC_REPRESENTATION_CONTEXT ( 3 ) GLOBAL_UNCERTAINTY_ASSIGNED_CONTEXT ( ( #110 ) ) GLOBAL_UNIT_ASSIGNED_CONTEXT ( ( #105, #41, #118 ) ) REPRESENTATION_CONTEXT ( 'NONE', 'WORKASPACE' ) );
#48 = CIRCLE ( 'NONE', #92, 50.79999999999999716 ) ;
#49 = SHAPE_DEFINITION_REPRESENTATION ( #94, #162 ) ;
#50 = CIRCLE ( 'NONE', #180, 300.0000000000000000 ) ;
#51 = VERTEX_POINT ( 'NONE', #190 ) ;
#52 = SPHERICAL_SURFACE ( 'NONE', #54, 300.0000000000000000 ) ;
#53 = VERTEX_POINT ( 'NONE', #6 ) ;
#54 = AXIS2_PLACEMENT_3D ( 'NONE', #157, #111, #171 ) ;
#55 = EDGE_CURVE ( 'NONE', #188, #38, #18, .T. ) ;
#56 = DIRECTION ( 'NONE',  ( -1.000000000000000000, 0.000000000000000000, 0.000000000000000000 ) ) ;
#57 = DIRECTION ( 'NONE',  ( 0.000000000000000000, 0.000000000000000000, 1.000000000000000000 ) ) ;
#58 = DIRECTION ( 'NONE',  ( 1.000000000000000000, 0.000000000000000000, 0.000000000000000000 ) ) ;
#59 = LOCAL_TIME ( 8, 26, 54.00000000000000000, #178 ) ;
#60 = CARTESIAN_POINT ( 'NONE',  ( 0.000000000000000000, 0.000000000000000000, 0.000000000000000000 ) ) ;
#61 = MECHANICAL_CONTEXT ( 'NONE', #39, 'mechanical' ) ;
#62 = ORGANIZATION ( 'UNSPECIFIED', 'UNSPECIFIED', '' ) ;
#63 = CALENDAR_DATE ( 2021, 26, 2 ) ;
#64 = ORIENTED_EDGE ( 'NONE', *, *, #36, .T. ) ;
#65 = EDGE_LOOP ( 'NONE', ( #101, #185, #64, #170 ) ) ;
#66 = ADVANCED_FACE ( 'NONE', ( #145 ), #113, .F. ) ;
#67 = FACE_OUTER_BOUND ( 'NONE', #20, .T. ) ;
#68 = DIRECTION ( 'NONE',  ( 1.000000000000000000, 0.000000000000000000, 0.000000000000000000 ) ) ;
#69 = EDGE_LOOP ( 'NONE', ( #77, #99, #31 ) ) ;
#70 = CARTESIAN_POINT ( 'NONE',  ( 0.000000000000000000, 0.000000000000000000, 15.00000000000000000 ) ) ;
#71 = DIRECTION ( 'NONE',  ( 1.000000000000000000, 0.000000000000000000, -0.000000000000000000 ) ) ;
#72 = APPROVAL_ROLE ( '' ) ;
#73 = PERSON_AND_ORGANIZATION ( #21, #62 ) ;
#74 = COORDINATED_UNIVERSAL_TIME_OFFSET ( 2, 0, .AHEAD. ) ;
#75 = PERSON_AND_ORGANIZATION ( #21, #62 ) ;
#76 = APPROVAL_PERSON_ORGANIZATION ( #73, #176, #72 ) ;
#77 = ORIENTED_EDGE ( 'NONE', *, *, #55, .F. ) ;
#78 = AXIS2_PLACEMENT_3D ( 'NONE', #4, #126, #56 ) ;
#79 = ORIENTED_EDGE ( 'NONE', *, *, #36, .F. ) ;
#80 = PRODUCT_RELATED_PRODUCT_CATEGORY ( 'detail', '', ( #22 ) ) ;
#81 = CARTESIAN_POINT ( 'NONE',  ( 3.469446951953614189E-14, 0.000000000000000000, 310.6676512572858542 ) ) ;
#82 = CC_DESIGN_PERSON_AND_ORGANIZATION_ASSIGNMENT ( #102, #164, ( #156 ) ) ;
#83 = DIRECTION ( 'NONE',  ( 1.000000000000000000, 0.000000000000000000, 0.000000000000000000 ) ) ;
#84 = FACE_OUTER_BOUND ( 'NONE', #130, .T. ) ;
#85 = ORIENTED_EDGE ( 'NONE', *, *, #127, .F. ) ;
#86 = CARTESIAN_POINT ( 'NONE',  ( 5.306417150674643935E-14, 0.000000000000000000, 10.66765125728585950 ) ) ;
#87 = APPLICATION_PROTOCOL_DEFINITION ( 'international standard', 'config_control_design', 1994, #134 ) ;
#88 = VECTOR ( 'NONE', #163, 1000.000000000000000 ) ;
#89 = COORDINATED_UNIVERSAL_TIME_OFFSET ( 2, 0, .AHEAD. ) ;
#90 = PERSON_AND_ORGANIZATION_ROLE ( 'design_owner' ) ;
#91 = DIRECTION ( 'NONE',  ( 1.000000000000000000, 0.000000000000000000, 0.000000000000000000 ) ) ;
#92 = AXIS2_PLACEMENT_3D ( 'NONE', #32, #97, #58 ) ;
#93 = AXIS2_PLACEMENT_3D ( 'NONE', #81, #124, #5 ) ;
#94 = PRODUCT_DEFINITION_SHAPE ( 'NONE', 'NONE',  #156 ) ;
#95 = FACE_OUTER_BOUND ( 'NONE', #69, .T. ) ;
#96 = APPROVAL_PERSON_ORGANIZATION ( #177, #152, #8 ) ;
#97 = DIRECTION ( 'NONE',  ( 0.000000000000000000, 0.000000000000000000, 1.000000000000000000 ) ) ;
#98 = CARTESIAN_POINT ( 'NONE',  ( -50.79999999999991189, 0.000000000000000000, 15.00000000000001421 ) ) ;
#99 = ORIENTED_EDGE ( 'NONE', *, *, #115, .F. ) ;
#100 = CC_DESIGN_APPROVAL ( #176, ( #30 ) ) ;
#101 = ORIENTED_EDGE ( 'NONE', *, *, #193, .F. ) ;
#102 = PERSON_AND_ORGANIZATION ( #21, #62 ) ;
#103 = CC_DESIGN_PERSON_AND_ORGANIZATION_ASSIGNMENT ( #153, #117, ( #30 ) ) ;
#104 = AXIS2_PLACEMENT_3D ( 'NONE', #116, #181, #167 ) ;
#105 =( LENGTH_UNIT ( ) NAMED_UNIT ( * ) SI_UNIT ( .MILLI., .METRE. ) );
#106 = CALENDAR_DATE ( 2021, 26, 2 ) ;
#107 = PERSON_AND_ORGANIZATION_ROLE ( 'classification_officer' ) ;
#108 = CC_DESIGN_DATE_AND_TIME_ASSIGNMENT ( #11, #43, ( #12 ) ) ;
#109 = ORIENTED_EDGE ( 'NONE', *, *, #127, .T. ) ;
#110 = UNCERTAINTY_MEASURE_WITH_UNIT (LENGTH_MEASURE( 1.000000000000000082E-05 ), #105, 'distance_accuracy_value', 'NONE');
#111 = DIRECTION ( 'NONE',  ( 0.000000000000000000, -1.000000000000000000, -0.000000000000000000 ) ) ;
#112 = ORIENTED_EDGE ( 'NONE', *, *, #26, .F. ) ;
#113 = PLANE ( 'NONE',  #40 ) ;
#114 = DIRECTION ( 'NONE',  ( -0.000000000000000000, -0.000000000000000000, -1.000000000000000000 ) ) ;
#115 = EDGE_CURVE ( 'NONE', #53, #188, #154, .T. ) ;
#116 = CARTESIAN_POINT ( 'NONE',  ( 0.000000000000000000, 0.000000000000000000, 0.000000000000000000 ) ) ;
#117 = PERSON_AND_ORGANIZATION_ROLE ( 'design_supplier' ) ;
#118 =( NAMED_UNIT ( * ) SI_UNIT ( $, .STERADIAN. ) SOLID_ANGLE_UNIT ( ) );
#119 = SECURITY_CLASSIFICATION_LEVEL ( 'unclassified' ) ;
#120 = APPROVAL_DATE_TIME ( #15, #195 ) ;
#121 = CIRCLE ( 'NONE', #187, 50.79999999999994742 ) ;
#122 = ADVANCED_FACE ( 'NONE', ( #67 ), #52, .F. ) ;
#123 = AXIS2_PLACEMENT_3D ( 'NONE', #70, #161, #158 ) ;
#124 = DIRECTION ( 'NONE',  ( 1.224646799147353207E-16, -1.000000000000000000, 0.000000000000000000 ) ) ;
#125 = DIRECTION ( 'NONE',  ( 0.000000000000000000, 0.000000000000000000, 1.000000000000000000 ) ) ;
#126 = DIRECTION ( 'NONE',  ( -0.000000000000000000, -0.000000000000000000, -1.000000000000000000 ) ) ;
#127 = EDGE_CURVE ( 'NONE', #188, #53, #121, .T. ) ;
#128 = CARTESIAN_POINT ( 'NONE',  ( 3.469446951953614189E-14, 0.000000000000000000, 310.6676512572858542 ) ) ;
#129 = DESIGN_CONTEXT ( 'detailed design', #134, 'design' ) ;
#130 = EDGE_LOOP ( 'NONE', ( #109, #139, #3, #79 ) ) ;
#131 = CALENDAR_DATE ( 2021, 26, 2 ) ;
#132 = DATE_AND_TIME ( #131, #142 ) ;
#133 = PERSON_AND_ORGANIZATION ( #21, #62 ) ;
#134 = APPLICATION_CONTEXT ( 'configuration controlled 3d designs of mechanical parts and assemblies' ) ;
#135 = COORDINATED_UNIVERSAL_TIME_OFFSET ( 2, 0, .AHEAD. ) ;
#136 = CC_DESIGN_PERSON_AND_ORGANIZATION_ASSIGNMENT ( #197, #107, ( #12 ) ) ;
#137 = ADVANCED_FACE ( 'NONE', ( #95 ), #172, .F. ) ;
#138 = AXIS2_PLACEMENT_3D ( 'NONE', #34, #2, #192 ) ;
#139 = ORIENTED_EDGE ( 'NONE', *, *, #193, .T. ) ;
#140 = EDGE_LOOP ( 'NONE', ( #112, #37 ) ) ;
#141 = CC_DESIGN_PERSON_AND_ORGANIZATION_ASSIGNMENT ( #133, #196, ( #30 ) ) ;
#142 = LOCAL_TIME ( 8, 26, 54.00000000000000000, #74 ) ;
#143 = DIRECTION ( 'NONE',  ( 0.000000000000000000, -1.000000000000000000, -0.000000000000000000 ) ) ;
#144 = FACE_OUTER_BOUND ( 'NONE', #65, .T. ) ;
#145 = FACE_OUTER_BOUND ( 'NONE', #140, .T. ) ;
#146 = CARTESIAN_POINT ( 'NONE',  ( 50.79999999999999716, 6.221205739668553730E-15, 0.000000000000000000 ) ) ;
#147 = DATE_AND_TIME ( #42, #9 ) ;
#148 = APPROVAL_STATUS ( 'not_yet_approved' ) ;
#149 = LOCAL_TIME ( 8, 26, 54.00000000000000000, #169 ) ;
#150 = DIRECTION ( 'NONE',  ( 0.000000000000000000, 0.000000000000000000, 1.000000000000000000 ) ) ;
#151 = PERSON_AND_ORGANIZATION ( #21, #62 ) ;
#152 = APPROVAL ( #148, 'UNSPECIFIED' ) ;
#153 = PERSON_AND_ORGANIZATION ( #21, #62 ) ;
#154 = CIRCLE ( 'NONE', #138, 50.79999999999994742 ) ;
#155 = CC_DESIGN_APPROVAL ( #152, ( #156 ) ) ;
#156 = PRODUCT_DEFINITION ( 'UNKNOWN', '', #30, #129 ) ;
#157 = CARTESIAN_POINT ( 'NONE',  ( 3.469446951953614189E-14, 0.000000000000000000, 310.6676512572858542 ) ) ;
#158 = DIRECTION ( 'NONE',  ( -1.000000000000000000, 0.000000000000000000, 0.000000000000000000 ) ) ;
#159 = CARTESIAN_POINT ( 'NONE',  ( -50.79999999999999716, 0.000000000000000000, 15.00000000000000000 ) ) ;
#160 = APPROVAL_PERSON_ORGANIZATION ( #75, #195, #13 ) ;
#161 = DIRECTION ( 'NONE',  ( -0.000000000000000000, -0.000000000000000000, -1.000000000000000000 ) ) ;
#162 = ADVANCED_BREP_SHAPE_REPRESENTATION ( '010-1808E_UVFS_PCV_window', ( #184, #183 ), #47 ) ;
#163 = DIRECTION ( 'NONE',  ( -0.000000000000000000, -0.000000000000000000, -1.000000000000000000 ) ) ;
#164 = PERSON_AND_ORGANIZATION_ROLE ( 'creator' ) ;
#165 = AXIS2_PLACEMENT_3D ( 'NONE', #128, #143, #83 ) ;
#166 = ADVANCED_FACE ( 'NONE', ( #144 ), #189, .T. ) ;
#167 = DIRECTION ( 'NONE',  ( 1.000000000000000000, 0.000000000000000000, 0.000000000000000000 ) ) ;
#168 = CC_DESIGN_SECURITY_CLASSIFICATION ( #12, ( #30 ) ) ;
#169 = COORDINATED_UNIVERSAL_TIME_OFFSET ( 2, 0, .AHEAD. ) ;
#170 = ORIENTED_EDGE ( 'NONE', *, *, #26, .T. ) ;
#171 = DIRECTION ( 'NONE',  ( 1.000000000000000000, 0.000000000000000000, 0.000000000000000000 ) ) ;
#172 = SPHERICAL_SURFACE ( 'NONE', #165, 300.0000000000000000 ) ;
#173 = CARTESIAN_POINT ( 'NONE',  ( 3.469446951953614189E-14, 0.000000000000000000, 310.6676512572858542 ) ) ;
#174 = CARTESIAN_POINT ( 'NONE',  ( 50.79999999999999716, 6.221205739668553730E-15, 15.00000000000000000 ) ) ;
#175 = DIRECTION ( 'NONE',  ( -0.000000000000000000, -0.000000000000000000, -1.000000000000000000 ) ) ;
#176 = APPROVAL ( #46, 'UNSPECIFIED' ) ;
#177 = PERSON_AND_ORGANIZATION ( #21, #62 ) ;
#178 = COORDINATED_UNIVERSAL_TIME_OFFSET ( 2, 0, .AHEAD. ) ;
#179 = EDGE_CURVE ( 'NONE', #53, #38, #50, .T. ) ;
#180 = AXIS2_PLACEMENT_3D ( 'NONE', #173, #35, #57 ) ;
#181 = DIRECTION ( 'NONE',  ( 0.000000000000000000, 0.000000000000000000, 1.000000000000000000 ) ) ;
#182 = APPROVAL_STATUS ( 'not_yet_approved' ) ;
#183 = AXIS2_PLACEMENT_3D ( 'NONE', #60, #150, #91 ) ;
#184 = MANIFOLD_SOLID_BREP ( 'Cut-Revolve1', #44 ) ;
#185 = ORIENTED_EDGE ( 'NONE', *, *, #115, .T. ) ;
#186 = CC_DESIGN_PERSON_AND_ORGANIZATION_ASSIGNMENT ( #151, #90, ( #22 ) ) ;
#187 = AXIS2_PLACEMENT_3D ( 'NONE', #25, #114, #68 ) ;
#188 = VERTEX_POINT ( 'NONE', #98 ) ;
#189 = CYLINDRICAL_SURFACE ( 'NONE', #78, 50.79999999999999716 ) ;
#190 = CARTESIAN_POINT ( 'NONE',  ( -50.79999999999999716, 0.000000000000000000, 0.000000000000000000 ) ) ;
#191 = LINE ( 'NONE', #174, #88 ) ;
#192 = DIRECTION ( 'NONE',  ( 1.000000000000000000, 0.000000000000000000, 0.000000000000000000 ) ) ;
#193 = EDGE_CURVE ( 'NONE', #53, #16, #191, .T. ) ;
#194 = DATE_TIME_ROLE ( 'creation_date' ) ;
#195 = APPROVAL ( #182, 'UNSPECIFIED' ) ;
#196 = PERSON_AND_ORGANIZATION_ROLE ( 'creator' ) ;
#197 = PERSON_AND_ORGANIZATION ( #21, #62 ) ;
#198 = APPROVAL_DATE_TIME ( #147, #152 ) ;
#199 = LOCAL_TIME ( 8, 26, 54.00000000000000000, #89 ) ;
#200 = ORIENTED_EDGE ( 'NONE', *, *, #179, .F. ) ;
#201 = EDGE_CURVE ( 'NONE', #16, #51, #29, .T. ) ;
ENDSEC;
END-ISO-10303-21;
