ISO-10303-21;
HEADER;
FILE_DESCRIPTION (( 'STEP AP203' ),
    '1' );
FILE_NAME ('010-1745E_UVFS_PCV_window.STEP',
    '2021-02-26T06:19:36',
    ( '' ),
    ( '' ),
    'SwSTEP 2.0',
    'SolidWorks 2019',
    '' );
FILE_SCHEMA (( 'CONFIG_CONTROL_DESIGN' ));
ENDSEC;

DATA;
#1 = CIRCLE ( 'NONE', #133, 3000.000000000000000 ) ;
#2 = ORIENTED_EDGE ( 'NONE', *, *, #192, .F. ) ;
#3 = MECHANICAL_CONTEXT ( 'NONE', #79, 'mechanical' ) ;
#4 = ADVANCED_FACE ( 'NONE', ( #200 ), #169, .T. ) ;
#5 = COORDINATED_UNIVERSAL_TIME_OFFSET ( 2, 0, .AHEAD. ) ;
#6 = COORDINATED_UNIVERSAL_TIME_OFFSET ( 2, 0, .AHEAD. ) ;
#7 = LOCAL_TIME ( 8, 19, 36.00000000000000000, #87 ) ;
#8 = PERSON_AND_ORGANIZATION ( #189, #47 ) ;
#9 = CIRCLE ( 'NONE', #102, 38.10000000000000142 ) ;
#10 = APPROVAL_PERSON_ORGANIZATION ( #8, #142, #171 ) ;
#11 = ORIENTED_EDGE ( 'NONE', *, *, #126, .T. ) ;
#12 = PRODUCT_DEFINITION_SHAPE ( 'NONE', 'NONE',  #63 ) ;
#13 = EDGE_LOOP ( 'NONE', ( #2, #45, #21 ) ) ;
#14 = DIRECTION ( 'NONE',  ( 1.000000000000000000, 0.000000000000000000, 0.000000000000000000 ) ) ;
#15 = CARTESIAN_POINT ( 'NONE',  ( 3.677613769070831040E-13, 0.000000000000000000, 12.70000000000015561 ) ) ;
#16 = CARTESIAN_POINT ( 'NONE',  ( 0.000000000000000000, 0.000000000000000000, 0.000000000000000000 ) ) ;
#17 = SPHERICAL_SURFACE ( 'NONE', #24, 3000.000000000000000 ) ;
#18 = PERSON_AND_ORGANIZATION ( #189, #47 ) ;
#19 = AXIS2_PLACEMENT_3D ( 'NONE', #180, #163, #55 ) ;
#20 = CARTESIAN_POINT ( 'NONE',  ( 0.000000000000000000, 0.000000000000000000, 0.000000000000000000 ) ) ;
#21 = ORIENTED_EDGE ( 'NONE', *, *, #92, .T. ) ;
#22 = DIRECTION ( 'NONE',  ( -0.000000000000000000, -0.000000000000000000, -1.000000000000000000 ) ) ;
#23 = CARTESIAN_POINT ( 'NONE',  ( 5.514583967791860282E-13, 0.000000000000000000, 12.45805524378873486 ) ) ;
#24 = AXIS2_PLACEMENT_3D ( 'NONE', #183, #68, #72 ) ;
#25 = CALENDAR_DATE ( 2021, 26, 2 ) ;
#26 = PERSON_AND_ORGANIZATION_ROLE ( 'classification_officer' ) ;
#27 = DATE_AND_TIME ( #74, #190 ) ;
#28 = PRODUCT_DEFINITION_FORMATION_WITH_SPECIFIED_SOURCE ( 'ANY', '', #77, .NOT_KNOWN. ) ;
#29 = CALENDAR_DATE ( 2021, 26, 2 ) ;
#30 = APPROVAL_ROLE ( '' ) ;
#31 = EDGE_CURVE ( 'NONE', #109, #143, #89, .T. ) ;
#32 = AXIS2_PLACEMENT_3D ( 'NONE', #51, #84, #188 ) ;
#33 = CC_DESIGN_PERSON_AND_ORGANIZATION_ASSIGNMENT ( #18, #26, ( #141 ) ) ;
#34 = DIRECTION ( 'NONE',  ( 1.000000000000000000, 1.224646799147353207E-16, 0.000000000000000000 ) ) ;
#35 = ORIENTED_EDGE ( 'NONE', *, *, #174, .T. ) ;
#36 = LOCAL_TIME ( 8, 19, 36.00000000000000000, #43 ) ;
#37 =( GEOMETRIC_REPRESENTATION_CONTEXT ( 3 ) GLOBAL_UNCERTAINTY_ASSIGNED_CONTEXT ( ( #52 ) ) GLOBAL_UNIT_ASSIGNED_CONTEXT ( ( #123, #94, #194 ) ) REPRESENTATION_CONTEXT ( 'NONE', 'WORKASPACE' ) );
#38 = DIRECTION ( 'NONE',  ( 1.000000000000000000, 0.000000000000000000, 0.000000000000000000 ) ) ;
#39 = DIRECTION ( 'NONE',  ( 0.000000000000000000, 0.000000000000000000, 1.000000000000000000 ) ) ;
#40 = DIRECTION ( 'NONE',  ( -0.000000000000000000, -0.000000000000000000, -1.000000000000000000 ) ) ;
#41 = CALENDAR_DATE ( 2021, 26, 2 ) ;
#42 = CARTESIAN_POINT ( 'NONE',  ( 3.677613769070831040E-13, 0.000000000000000000, 3012.458055243788749 ) ) ;
#43 = COORDINATED_UNIVERSAL_TIME_OFFSET ( 2, 0, .AHEAD. ) ;
#44 = ORIENTED_EDGE ( 'NONE', *, *, #192, .T. ) ;
#45 = ORIENTED_EDGE ( 'NONE', *, *, #186, .F. ) ;
#46 = PERSON_AND_ORGANIZATION_ROLE ( 'design_owner' ) ;
#47 = ORGANIZATION ( 'UNSPECIFIED', 'UNSPECIFIED', '' ) ;
#48 = ADVANCED_FACE ( 'NONE', ( #56 ), #17, .F. ) ;
#49 = AXIS2_PLACEMENT_3D ( 'NONE', #129, #197, #146 ) ;
#50 = APPLICATION_CONTEXT ( 'configuration controlled 3d designs of mechanical parts and assemblies' ) ;
#51 = CARTESIAN_POINT ( 'NONE',  ( 0.000000000000000000, 0.000000000000000000, 0.000000000000000000 ) ) ;
#52 = UNCERTAINTY_MEASURE_WITH_UNIT (LENGTH_MEASURE( 1.000000000000000082E-05 ), #123, 'distance_accuracy_value', 'NONE');
#53 = ADVANCED_FACE ( 'NONE', ( #150 ), #130, .F. ) ;
#54 = CC_DESIGN_SECURITY_CLASSIFICATION ( #141, ( #28 ) ) ;
#55 = DIRECTION ( 'NONE',  ( 0.000000000000000000, 0.000000000000000000, 1.000000000000000000 ) ) ;
#56 = FACE_OUTER_BOUND ( 'NONE', #13, .T. ) ;
#57 = CARTESIAN_POINT ( 'NONE',  ( -38.10000000004834675, 0.000000000000000000, 12.70000000000015561 ) ) ;
#58 = ORIENTED_EDGE ( 'NONE', *, *, #121, .T. ) ;
#59 = AXIS2_PLACEMENT_3D ( 'NONE', #42, #101, #14 ) ;
#60 = CARTESIAN_POINT ( 'NONE',  ( 0.000000000000000000, 0.000000000000000000, 12.69999999999999929 ) ) ;
#61 = SECURITY_CLASSIFICATION_LEVEL ( 'unclassified' ) ;
#62 = CALENDAR_DATE ( 2021, 26, 2 ) ;
#63 = PRODUCT_DEFINITION ( 'UNKNOWN', '', #28, #195 ) ;
#64 = ORIENTED_EDGE ( 'NONE', *, *, #174, .F. ) ;
#65 = DIRECTION ( 'NONE',  ( -0.000000000000000000, -0.000000000000000000, -1.000000000000000000 ) ) ;
#66 = CC_DESIGN_PERSON_AND_ORGANIZATION_ASSIGNMENT ( #184, #46, ( #77 ) ) ;
#67 = FACE_OUTER_BOUND ( 'NONE', #187, .T. ) ;
#68 = DIRECTION ( 'NONE',  ( 0.000000000000000000, -1.000000000000000000, -0.000000000000000000 ) ) ;
#69 = PERSON_AND_ORGANIZATION_ROLE ( 'creator' ) ;
#70 = ORIENTED_EDGE ( 'NONE', *, *, #92, .F. ) ;
#71 = DATE_AND_TIME ( #41, #36 ) ;
#72 = DIRECTION ( 'NONE',  ( 1.000000000000000000, 0.000000000000000000, 0.000000000000000000 ) ) ;
#73 = COORDINATED_UNIVERSAL_TIME_OFFSET ( 2, 0, .AHEAD. ) ;
#74 = CALENDAR_DATE ( 2021, 26, 2 ) ;
#75 = EDGE_CURVE ( 'NONE', #179, #82, #127, .T. ) ;
#76 = CC_DESIGN_APPROVAL ( #154, ( #28 ) ) ;
#77 = PRODUCT ( '010-1745E_UVFS_PCV_window', '010-1745E_UVFS_PCV_window', '', ( #3 ) ) ;
#78 = EDGE_LOOP ( 'NONE', ( #181, #167, #112, #11 ) ) ;
#79 = APPLICATION_CONTEXT ( 'configuration controlled 3d designs of mechanical parts and assemblies' ) ;
#80 = CIRCLE ( 'NONE', #96, 38.10000000000000142 ) ;
#81 = PLANE ( 'NONE',  #139 ) ;
#82 = VERTEX_POINT ( 'NONE', #162 ) ;
#83 = DIRECTION ( 'NONE',  ( 0.000000000000000000, 0.000000000000000000, 1.000000000000000000 ) ) ;
#84 = DIRECTION ( 'NONE',  ( 0.000000000000000000, 0.000000000000000000, 1.000000000000000000 ) ) ;
#85 = CARTESIAN_POINT ( 'NONE',  ( 38.10000000000000142, 4.665904304751416087E-15, 0.000000000000000000 ) ) ;
#86 = CARTESIAN_POINT ( 'NONE',  ( 38.10000000000000142, 4.665904304751416087E-15, 12.69999999999999929 ) ) ;
#87 = COORDINATED_UNIVERSAL_TIME_OFFSET ( 2, 0, .AHEAD. ) ;
#88 = DATE_TIME_ROLE ( 'classification_date' ) ;
#89 = LINE ( 'NONE', #86, #191 ) ;
#90 = DATE_AND_TIME ( #29, #95 ) ;
#91 = DATE_AND_TIME ( #25, #111 ) ;
#92 = EDGE_CURVE ( 'NONE', #109, #128, #175, .T. ) ;
#93 = CC_DESIGN_DATE_AND_TIME_ASSIGNMENT ( #71, #120, ( #63 ) ) ;
#94 =( NAMED_UNIT ( * ) PLANE_ANGLE_UNIT ( ) SI_UNIT ( $, .RADIAN. ) );
#95 = LOCAL_TIME ( 8, 19, 36.00000000000000000, #6 ) ;
#96 = AXIS2_PLACEMENT_3D ( 'NONE', #199, #159, #38 ) ;
#97 = CLOSED_SHELL ( 'NONE', ( #53, #4, #164, #131, #48 ) ) ;
#98 = CARTESIAN_POINT ( 'NONE',  ( 3.677613769070831040E-13, 0.000000000000000000, 12.70000000000015561 ) ) ;
#99 = ORIENTED_EDGE ( 'NONE', *, *, #121, .F. ) ;
#100 = CARTESIAN_POINT ( 'NONE',  ( 38.10000000004907861, 4.665904304757426418E-15, 12.70000000000015561 ) ) ;
#101 = DIRECTION ( 'NONE',  ( 0.000000000000000000, -1.000000000000000000, -0.000000000000000000 ) ) ;
#102 = AXIS2_PLACEMENT_3D ( 'NONE', #16, #83, #201 ) ;
#103 = PERSON_AND_ORGANIZATION ( #189, #47 ) ;
#104 = APPROVAL_DATE_TIME ( #132, #140 ) ;
#105 = ORIENTED_EDGE ( 'NONE', *, *, #75, .F. ) ;
#106 = AXIS2_PLACEMENT_3D ( 'NONE', #15, #65, #158 ) ;
#107 = PERSON_AND_ORGANIZATION_ROLE ( 'design_supplier' ) ;
#108 = CC_DESIGN_APPROVAL ( #140, ( #63 ) ) ;
#109 = VERTEX_POINT ( 'NONE', #100 ) ;
#110 = CYLINDRICAL_SURFACE ( 'NONE', #49, 38.10000000000000142 ) ;
#111 = LOCAL_TIME ( 8, 19, 36.00000000000000000, #73 ) ;
#112 = ORIENTED_EDGE ( 'NONE', *, *, #75, .T. ) ;
#113 = DIRECTION ( 'NONE',  ( -0.000000000000000000, -0.000000000000000000, -1.000000000000000000 ) ) ;
#114 = CARTESIAN_POINT ( 'NONE',  ( -38.10000000000000142, 0.000000000000000000, 12.69999999999999929 ) ) ;
#115 = DIRECTION ( 'NONE',  ( -1.000000000000000000, 0.000000000000000000, 0.000000000000000000 ) ) ;
#116 = APPROVAL_DATE_TIME ( #90, #142 ) ;
#117 = ORIENTED_EDGE ( 'NONE', *, *, #126, .F. ) ;
#118 = PERSON_AND_ORGANIZATION ( #189, #47 ) ;
#119 = CC_DESIGN_PERSON_AND_ORGANIZATION_ASSIGNMENT ( #134, #69, ( #63 ) ) ;
#120 = DATE_TIME_ROLE ( 'creation_date' ) ;
#121 = EDGE_CURVE ( 'NONE', #179, #109, #198, .T. ) ;
#122 = CIRCLE ( 'NONE', #106, 38.10000000004870913 ) ;
#123 =( LENGTH_UNIT ( ) NAMED_UNIT ( * ) SI_UNIT ( .MILLI., .METRE. ) );
#124 = CARTESIAN_POINT ( 'NONE',  ( 3.677613769070831040E-13, 0.000000000000000000, 3012.458055243788749 ) ) ;
#125 = DIRECTION ( 'NONE',  ( 1.000000000000000000, 0.000000000000000000, 0.000000000000000000 ) ) ;
#126 = EDGE_CURVE ( 'NONE', #82, #143, #80, .T. ) ;
#127 = LINE ( 'NONE', #114, #157 ) ;
#128 = VERTEX_POINT ( 'NONE', #23 ) ;
#129 = CARTESIAN_POINT ( 'NONE',  ( 0.000000000000000000, 0.000000000000000000, 12.69999999999999929 ) ) ;
#130 = SPHERICAL_SURFACE ( 'NONE', #59, 3000.000000000000000 ) ;
#131 = ADVANCED_FACE ( 'NONE', ( #67 ), #81, .F. ) ;
#132 = DATE_AND_TIME ( #62, #7 ) ;
#133 = AXIS2_PLACEMENT_3D ( 'NONE', #124, #178, #34 ) ;
#134 = PERSON_AND_ORGANIZATION ( #189, #47 ) ;
#135 = DIRECTION ( 'NONE',  ( -0.000000000000000000, -0.000000000000000000, -1.000000000000000000 ) ) ;
#136 = PERSON_AND_ORGANIZATION_ROLE ( 'creator' ) ;
#137 = APPROVAL_STATUS ( 'not_yet_approved' ) ;
#138 = PERSON_AND_ORGANIZATION ( #189, #47 ) ;
#139 = AXIS2_PLACEMENT_3D ( 'NONE', #20, #39, #144 ) ;
#140 = APPROVAL ( #170, 'UNSPECIFIED' ) ;
#141 = SECURITY_CLASSIFICATION ( '', '', #61 ) ;
#142 = APPROVAL ( #137, 'UNSPECIFIED' ) ;
#143 = VERTEX_POINT ( 'NONE', #85 ) ;
#144 = DIRECTION ( 'NONE',  ( 1.000000000000000000, 0.000000000000000000, -0.000000000000000000 ) ) ;
#145 = PRODUCT_RELATED_PRODUCT_CATEGORY ( 'detail', '', ( #77 ) ) ;
#146 = DIRECTION ( 'NONE',  ( -1.000000000000000000, 0.000000000000000000, 0.000000000000000000 ) ) ;
#147 = APPROVAL_PERSON_ORGANIZATION ( #118, #140, #30 ) ;
#148 = FACE_OUTER_BOUND ( 'NONE', #78, .T. ) ;
#149 = CC_DESIGN_APPROVAL ( #142, ( #141 ) ) ;
#150 = FACE_OUTER_BOUND ( 'NONE', #161, .T. ) ;
#151 = APPROVAL_STATUS ( 'not_yet_approved' ) ;
#152 = CC_DESIGN_DATE_AND_TIME_ASSIGNMENT ( #27, #88, ( #141 ) ) ;
#153 = APPROVAL_DATE_TIME ( #91, #154 ) ;
#154 = APPROVAL ( #151, 'UNSPECIFIED' ) ;
#155 = MANIFOLD_SOLID_BREP ( 'Cut-Revolve1', #97 ) ;
#156 = CC_DESIGN_PERSON_AND_ORGANIZATION_ASSIGNMENT ( #138, #107, ( #28 ) ) ;
#157 = VECTOR ( 'NONE', #22, 1000.000000000000000 ) ;
#158 = DIRECTION ( 'NONE',  ( 1.000000000000000000, 0.000000000000000000, 0.000000000000000000 ) ) ;
#159 = DIRECTION ( 'NONE',  ( 0.000000000000000000, 0.000000000000000000, 1.000000000000000000 ) ) ;
#160 = CC_DESIGN_PERSON_AND_ORGANIZATION_ASSIGNMENT ( #103, #136, ( #28 ) ) ;
#161 = EDGE_LOOP ( 'NONE', ( #99, #44, #70 ) ) ;
#162 = CARTESIAN_POINT ( 'NONE',  ( -38.10000000000000142, 0.000000000000000000, 0.000000000000000000 ) ) ;
#163 = DIRECTION ( 'NONE',  ( 0.000000000000000000, 1.000000000000000000, -0.000000000000000000 ) ) ;
#164 = ADVANCED_FACE ( 'NONE', ( #148 ), #110, .T. ) ;
#165 = EDGE_LOOP ( 'NONE', ( #58, #177, #35, #105 ) ) ;
#166 = PERSON_AND_ORGANIZATION ( #189, #47 ) ;
#167 = ORIENTED_EDGE ( 'NONE', *, *, #186, .T. ) ;
#168 = APPROVAL_ROLE ( '' ) ;
#169 = CYLINDRICAL_SURFACE ( 'NONE', #176, 38.10000000000000142 ) ;
#170 = APPROVAL_STATUS ( 'not_yet_approved' ) ;
#171 = APPROVAL_ROLE ( '' ) ;
#172 = ADVANCED_BREP_SHAPE_REPRESENTATION ( '010-1745E_UVFS_PCV_window', ( #155, #32 ), #37 ) ;
#173 = APPLICATION_PROTOCOL_DEFINITION ( 'international standard', 'config_control_design', 1994, #50 ) ;
#174 = EDGE_CURVE ( 'NONE', #143, #82, #9, .T. ) ;
#175 = CIRCLE ( 'NONE', #19, 3000.000000000000000 ) ;
#176 = AXIS2_PLACEMENT_3D ( 'NONE', #60, #40, #115 ) ;
#177 = ORIENTED_EDGE ( 'NONE', *, *, #31, .T. ) ;
#178 = DIRECTION ( 'NONE',  ( 1.224646799147353207E-16, -1.000000000000000000, 0.000000000000000000 ) ) ;
#179 = VERTEX_POINT ( 'NONE', #57 ) ;
#180 = CARTESIAN_POINT ( 'NONE',  ( 3.677613769070831040E-13, 0.000000000000000000, 3012.458055243788749 ) ) ;
#181 = ORIENTED_EDGE ( 'NONE', *, *, #31, .F. ) ;
#182 = AXIS2_PLACEMENT_3D ( 'NONE', #98, #113, #125 ) ;
#183 = CARTESIAN_POINT ( 'NONE',  ( 3.677613769070831040E-13, 0.000000000000000000, 3012.458055243788749 ) ) ;
#184 = PERSON_AND_ORGANIZATION ( #189, #47 ) ;
#185 = SHAPE_DEFINITION_REPRESENTATION ( #12, #172 ) ;
#186 = EDGE_CURVE ( 'NONE', #109, #179, #122, .T. ) ;
#187 = EDGE_LOOP ( 'NONE', ( #117, #64 ) ) ;
#188 = DIRECTION ( 'NONE',  ( 1.000000000000000000, 0.000000000000000000, 0.000000000000000000 ) ) ;
#189 = PERSON ( 'UNSPECIFIED', 'UNSPECIFIED', 'UNSPECIFIED', ('UNSPECIFIED'), ('UNSPECIFIED'), ('UNSPECIFIED') ) ;
#190 = LOCAL_TIME ( 8, 19, 36.00000000000000000, #5 ) ;
#191 = VECTOR ( 'NONE', #135, 1000.000000000000000 ) ;
#192 = EDGE_CURVE ( 'NONE', #179, #128, #1, .T. ) ;
#193 = APPLICATION_PROTOCOL_DEFINITION ( 'international standard', 'config_control_design', 1994, #79 ) ;
#194 =( NAMED_UNIT ( * ) SI_UNIT ( $, .STERADIAN. ) SOLID_ANGLE_UNIT ( ) );
#195 = DESIGN_CONTEXT ( 'detailed design', #50, 'design' ) ;
#196 = APPROVAL_PERSON_ORGANIZATION ( #166, #154, #168 ) ;
#197 = DIRECTION ( 'NONE',  ( -0.000000000000000000, -0.000000000000000000, -1.000000000000000000 ) ) ;
#198 = CIRCLE ( 'NONE', #182, 38.10000000004870913 ) ;
#199 = CARTESIAN_POINT ( 'NONE',  ( 0.000000000000000000, 0.000000000000000000, 0.000000000000000000 ) ) ;
#200 = FACE_OUTER_BOUND ( 'NONE', #165, .T. ) ;
#201 = DIRECTION ( 'NONE',  ( 1.000000000000000000, 0.000000000000000000, 0.000000000000000000 ) ) ;
ENDSEC;
END-ISO-10303-21;
