ISO-10303-21;
HEADER;
FILE_DESCRIPTION (( 'STEP AP203' ),
    '1' );
FILE_NAME ('010-1735E_UVFS_PCV_window.STEP',
    '2021-02-26T06:19:15',
    ( '' ),
    ( '' ),
    'SwSTEP 2.0',
    'SolidWorks 2019',
    '' );
FILE_SCHEMA (( 'CONFIG_CONTROL_DESIGN' ));
ENDSEC;

DATA;
#1 = DIRECTION ( 'NONE',  ( -0.000000000000000000, -0.000000000000000000, -1.000000000000000000 ) ) ;
#2 = CIRCLE ( 'NONE', #69, 38.09999999999042331 ) ;
#3 = DIRECTION ( 'NONE',  ( 0.000000000000000000, 1.000000000000000000, -0.000000000000000000 ) ) ;
#4 = PRODUCT_RELATED_PRODUCT_CATEGORY ( 'detail', '', ( #182 ) ) ;
#5 = CARTESIAN_POINT ( 'NONE',  ( 2.428612866367529932E-13, 0.000000000000000000, 2012.337064569468566 ) ) ;
#6 = DATE_AND_TIME ( #100, #17 ) ;
#7 = APPLICATION_CONTEXT ( 'configuration controlled 3d designs of mechanical parts and assemblies' ) ;
#8 = ORGANIZATION ( 'UNSPECIFIED', 'UNSPECIFIED', '' ) ;
#9 = LOCAL_TIME ( 8, 19, 15.00000000000000000, #119 ) ;
#10 = AXIS2_PLACEMENT_3D ( 'NONE', #99, #126, #53 ) ;
#11 = EDGE_LOOP ( 'NONE', ( #169, #31, #155 ) ) ;
#12 = FACE_OUTER_BOUND ( 'NONE', #193, .T. ) ;
#13 = EDGE_LOOP ( 'NONE', ( #195, #44 ) ) ;
#14 = CALENDAR_DATE ( 2021, 26, 2 ) ;
#15 = DIRECTION ( 'NONE',  ( 0.000000000000000000, 0.000000000000000000, 1.000000000000000000 ) ) ;
#16 =( NAMED_UNIT ( * ) SI_UNIT ( $, .STERADIAN. ) SOLID_ANGLE_UNIT ( ) );
#17 = LOCAL_TIME ( 8, 19, 15.00000000000000000, #38 ) ;
#18 = ORIENTED_EDGE ( 'NONE', *, *, #30, .T. ) ;
#19 = ADVANCED_FACE ( 'NONE', ( #197 ), #157, .F. ) ;
#20 = APPLICATION_PROTOCOL_DEFINITION ( 'international standard', 'config_control_design', 1994, #43 ) ;
#21 = CALENDAR_DATE ( 2021, 26, 2 ) ;
#22 = CARTESIAN_POINT ( 'NONE',  ( -38.09999999999018172, 0.000000000000000000, 12.69999999999993356 ) ) ;
#23 = AXIS2_PLACEMENT_3D ( 'NONE', #176, #1, #72 ) ;
#24 = CARTESIAN_POINT ( 'NONE',  ( 38.10000000000000142, 4.665904304751416087E-15, 12.69999999999999929 ) ) ;
#25 = APPROVAL_PERSON_ORGANIZATION ( #163, #32, #56 ) ;
#26 = PERSON_AND_ORGANIZATION_ROLE ( 'classification_officer' ) ;
#27 = ADVANCED_FACE ( 'NONE', ( #173 ), #200, .F. ) ;
#28 = COORDINATED_UNIVERSAL_TIME_OFFSET ( 2, 0, .AHEAD. ) ;
#29 = APPROVAL_ROLE ( '' ) ;
#30 = EDGE_CURVE ( 'NONE', #117, #60, #181, .T. ) ;
#31 = ORIENTED_EDGE ( 'NONE', *, *, #102, .T. ) ;
#32 = APPROVAL ( #132, 'UNSPECIFIED' ) ;
#33 = MANIFOLD_SOLID_BREP ( 'Cut-Revolve1', #170 ) ;
#34 = PRODUCT_DEFINITION_SHAPE ( 'NONE', 'NONE',  #91 ) ;
#35 = CC_DESIGN_PERSON_AND_ORGANIZATION_ASSIGNMENT ( #51, #87, ( #107 ) ) ;
#36 = CC_DESIGN_APPROVAL ( #165, ( #91 ) ) ;
#37 = CARTESIAN_POINT ( 'NONE',  ( 2.428612866367529932E-13, 0.000000000000000000, 2012.337064569468566 ) ) ;
#38 = COORDINATED_UNIVERSAL_TIME_OFFSET ( 2, 0, .AHEAD. ) ;
#39 = AXIS2_PLACEMENT_3D ( 'NONE', #142, #199, #125 ) ;
#40 = VECTOR ( 'NONE', #86, 1000.000000000000000 ) ;
#41 = PERSON_AND_ORGANIZATION ( #93, #8 ) ;
#42 = CC_DESIGN_PERSON_AND_ORGANIZATION_ASSIGNMENT ( #127, #26, ( #192 ) ) ;
#43 = APPLICATION_CONTEXT ( 'configuration controlled 3d designs of mechanical parts and assemblies' ) ;
#44 = ORIENTED_EDGE ( 'NONE', *, *, #59, .F. ) ;
#45 = DIRECTION ( 'NONE',  ( 1.000000000000000000, 0.000000000000000000, 0.000000000000000000 ) ) ;
#46 = DIRECTION ( 'NONE',  ( -0.000000000000000000, -0.000000000000000000, -1.000000000000000000 ) ) ;
#47 = VERTEX_POINT ( 'NONE', #84 ) ;
#48 = FACE_OUTER_BOUND ( 'NONE', #11, .T. ) ;
#49 = PERSON_AND_ORGANIZATION_ROLE ( 'design_owner' ) ;
#50 = CARTESIAN_POINT ( 'NONE',  ( 0.000000000000000000, 0.000000000000000000, 0.000000000000000000 ) ) ;
#51 = PERSON_AND_ORGANIZATION ( #93, #8 ) ;
#52 = FACE_OUTER_BOUND ( 'NONE', #106, .T. ) ;
#53 = DIRECTION ( 'NONE',  ( 1.000000000000000000, 0.000000000000000000, 0.000000000000000000 ) ) ;
#54 = EDGE_CURVE ( 'NONE', #117, #65, #161, .T. ) ;
#55 = CALENDAR_DATE ( 2021, 26, 2 ) ;
#56 = APPROVAL_ROLE ( '' ) ;
#57 = LOCAL_TIME ( 8, 19, 15.00000000000000000, #184 ) ;
#58 = CIRCLE ( 'NONE', #89, 38.10000000000000142 ) ;
#59 = EDGE_CURVE ( 'NONE', #65, #47, #105, .T. ) ;
#60 = VERTEX_POINT ( 'NONE', #22 ) ;
#61 = EDGE_CURVE ( 'NONE', #60, #47, #130, .T. ) ;
#62 = ORIENTED_EDGE ( 'NONE', *, *, #76, .T. ) ;
#63 = DIRECTION ( 'NONE',  ( -0.000000000000000000, -0.000000000000000000, -1.000000000000000000 ) ) ;
#64 = UNCERTAINTY_MEASURE_WITH_UNIT (LENGTH_MEASURE( 1.000000000000000082E-05 ), #70, 'distance_accuracy_value', 'NONE');
#65 = VERTEX_POINT ( 'NONE', #73 ) ;
#66 = PERSON_AND_ORGANIZATION ( #93, #8 ) ;
#67 = APPROVAL ( #74, 'UNSPECIFIED' ) ;
#68 = VECTOR ( 'NONE', #71, 1000.000000000000000 ) ;
#69 = AXIS2_PLACEMENT_3D ( 'NONE', #178, #63, #45 ) ;
#70 =( LENGTH_UNIT ( ) NAMED_UNIT ( * ) SI_UNIT ( .MILLI., .METRE. ) );
#71 = DIRECTION ( 'NONE',  ( -0.000000000000000000, -0.000000000000000000, -1.000000000000000000 ) ) ;
#72 = DIRECTION ( 'NONE',  ( -1.000000000000000000, 0.000000000000000000, 0.000000000000000000 ) ) ;
#73 = CARTESIAN_POINT ( 'NONE',  ( 38.10000000000000142, 4.665904304751416087E-15, 0.000000000000000000 ) ) ;
#74 = APPROVAL_STATUS ( 'not_yet_approved' ) ;
#75 = ADVANCED_BREP_SHAPE_REPRESENTATION ( '010-1735E_UVFS_PCV_window', ( #33, #39 ), #112 ) ;
#76 = EDGE_CURVE ( 'NONE', #47, #65, #58, .T. ) ;
#77 = ORIENTED_EDGE ( 'NONE', *, *, #61, .F. ) ;
#78 = CARTESIAN_POINT ( 'NONE',  ( 3.653259665514883433E-13, 0.000000000000000000, 12.33706456946848107 ) ) ;
#79 = CC_DESIGN_PERSON_AND_ORGANIZATION_ASSIGNMENT ( #41, #160, ( #107 ) ) ;
#80 = ORIENTED_EDGE ( 'NONE', *, *, #61, .T. ) ;
#81 = ORIENTED_EDGE ( 'NONE', *, *, #124, .T. ) ;
#82 = CC_DESIGN_APPROVAL ( #67, ( #192 ) ) ;
#83 = ORIENTED_EDGE ( 'NONE', *, *, #54, .T. ) ;
#84 = CARTESIAN_POINT ( 'NONE',  ( -38.10000000000000142, 0.000000000000000000, 0.000000000000000000 ) ) ;
#85 = CARTESIAN_POINT ( 'NONE',  ( 2.428612866367529932E-13, 0.000000000000000000, 2012.337064569468566 ) ) ;
#86 = DIRECTION ( 'NONE',  ( -0.000000000000000000, -0.000000000000000000, -1.000000000000000000 ) ) ;
#87 = PERSON_AND_ORGANIZATION_ROLE ( 'design_supplier' ) ;
#88 = CC_DESIGN_SECURITY_CLASSIFICATION ( #192, ( #107 ) ) ;
#89 = AXIS2_PLACEMENT_3D ( 'NONE', #172, #186, #111 ) ;
#90 = CARTESIAN_POINT ( 'NONE',  ( 0.000000000000000000, 0.000000000000000000, 12.69999999999999929 ) ) ;
#91 = PRODUCT_DEFINITION ( 'UNKNOWN', '', #107, #179 ) ;
#92 = CARTESIAN_POINT ( 'NONE',  ( 2.428612866367529932E-13, 0.000000000000000000, 2012.337064569468566 ) ) ;
#93 = PERSON ( 'UNSPECIFIED', 'UNSPECIFIED', 'UNSPECIFIED', ('UNSPECIFIED'), ('UNSPECIFIED'), ('UNSPECIFIED') ) ;
#94 = DIRECTION ( 'NONE',  ( 1.000000000000000000, 0.000000000000000000, 0.000000000000000000 ) ) ;
#95 = CYLINDRICAL_SURFACE ( 'NONE', #23, 38.10000000000000142 ) ;
#96 = CC_DESIGN_PERSON_AND_ORGANIZATION_ASSIGNMENT ( #66, #177, ( #91 ) ) ;
#97 = CALENDAR_DATE ( 2021, 26, 2 ) ;
#98 = DIRECTION ( 'NONE',  ( 1.000000000000000000, 0.000000000000000000, 0.000000000000000000 ) ) ;
#99 = CARTESIAN_POINT ( 'NONE',  ( 2.428612866367529932E-13, 0.000000000000000000, 12.69999999999993356 ) ) ;
#100 = CALENDAR_DATE ( 2021, 26, 2 ) ;
#101 = SECURITY_CLASSIFICATION_LEVEL ( 'unclassified' ) ;
#102 = EDGE_CURVE ( 'NONE', #60, #180, #135, .T. ) ;
#103 = CC_DESIGN_PERSON_AND_ORGANIZATION_ASSIGNMENT ( #108, #49, ( #182 ) ) ;
#104 = CYLINDRICAL_SURFACE ( 'NONE', #152, 38.10000000000000142 ) ;
#105 = CIRCLE ( 'NONE', #151, 38.10000000000000142 ) ;
#106 = EDGE_LOOP ( 'NONE', ( #120, #83, #140, #77 ) ) ;
#107 = PRODUCT_DEFINITION_FORMATION_WITH_SPECIFIED_SOURCE ( 'ANY', '', #182, .NOT_KNOWN. ) ;
#108 = PERSON_AND_ORGANIZATION ( #93, #8 ) ;
#109 = ADVANCED_FACE ( 'NONE', ( #52 ), #95, .T. ) ;
#110 = PERSON_AND_ORGANIZATION ( #93, #8 ) ;
#111 = DIRECTION ( 'NONE',  ( 1.000000000000000000, 0.000000000000000000, 0.000000000000000000 ) ) ;
#112 =( GEOMETRIC_REPRESENTATION_CONTEXT ( 3 ) GLOBAL_UNCERTAINTY_ASSIGNED_CONTEXT ( ( #64 ) ) GLOBAL_UNIT_ASSIGNED_CONTEXT ( ( #70, #168, #16 ) ) REPRESENTATION_CONTEXT ( 'NONE', 'WORKASPACE' ) );
#113 = SHAPE_DEFINITION_REPRESENTATION ( #34, #75 ) ;
#114 = DATE_TIME_ROLE ( 'creation_date' ) ;
#115 = AXIS2_PLACEMENT_3D ( 'NONE', #174, #159, #187 ) ;
#116 = LOCAL_TIME ( 8, 19, 15.00000000000000000, #28 ) ;
#117 = VERTEX_POINT ( 'NONE', #128 ) ;
#118 = ORIENTED_EDGE ( 'NONE', *, *, #102, .F. ) ;
#119 = COORDINATED_UNIVERSAL_TIME_OFFSET ( 2, 0, .AHEAD. ) ;
#120 = ORIENTED_EDGE ( 'NONE', *, *, #185, .T. ) ;
#121 = AXIS2_PLACEMENT_3D ( 'NONE', #37, #183, #147 ) ;
#122 = CIRCLE ( 'NONE', #191, 2000.000000000000000 ) ;
#123 = ORIENTED_EDGE ( 'NONE', *, *, #30, .F. ) ;
#124 = EDGE_CURVE ( 'NONE', #117, #180, #122, .T. ) ;
#125 = DIRECTION ( 'NONE',  ( 1.000000000000000000, 0.000000000000000000, 0.000000000000000000 ) ) ;
#126 = DIRECTION ( 'NONE',  ( -0.000000000000000000, -0.000000000000000000, -1.000000000000000000 ) ) ;
#127 = PERSON_AND_ORGANIZATION ( #93, #8 ) ;
#128 = CARTESIAN_POINT ( 'NONE',  ( 38.09999999999067199, 4.665904304750845740E-15, 12.69999999999993356 ) ) ;
#129 = DATE_AND_TIME ( #21, #57 ) ;
#130 = LINE ( 'NONE', #143, #68 ) ;
#131 = CC_DESIGN_DATE_AND_TIME_ASSIGNMENT ( #6, #114, ( #91 ) ) ;
#132 = APPROVAL_STATUS ( 'not_yet_approved' ) ;
#133 = APPROVAL_PERSON_ORGANIZATION ( #110, #67, #29 ) ;
#134 = ADVANCED_FACE ( 'NONE', ( #48 ), #171, .F. ) ;
#135 = CIRCLE ( 'NONE', #121, 2000.000000000000000 ) ;
#136 = APPROVAL_STATUS ( 'not_yet_approved' ) ;
#137 = APPLICATION_PROTOCOL_DEFINITION ( 'international standard', 'config_control_design', 1994, #7 ) ;
#138 = EDGE_LOOP ( 'NONE', ( #118, #123, #81 ) ) ;
#139 = AXIS2_PLACEMENT_3D ( 'NONE', #5, #188, #98 ) ;
#140 = ORIENTED_EDGE ( 'NONE', *, *, #59, .T. ) ;
#141 = ADVANCED_FACE ( 'NONE', ( #12 ), #104, .T. ) ;
#142 = CARTESIAN_POINT ( 'NONE',  ( 0.000000000000000000, 0.000000000000000000, 0.000000000000000000 ) ) ;
#143 = CARTESIAN_POINT ( 'NONE',  ( -38.10000000000000142, 0.000000000000000000, 12.69999999999999929 ) ) ;
#144 = DATE_AND_TIME ( #14, #9 ) ;
#145 = DIRECTION ( 'NONE',  ( 0.000000000000000000, 0.000000000000000000, 1.000000000000000000 ) ) ;
#146 = DATE_AND_TIME ( #55, #166 ) ;
#147 = DIRECTION ( 'NONE',  ( 1.000000000000000000, 1.224646799147353207E-16, 0.000000000000000000 ) ) ;
#148 = DATE_AND_TIME ( #97, #116 ) ;
#149 = DIRECTION ( 'NONE',  ( 1.000000000000000000, 0.000000000000000000, 0.000000000000000000 ) ) ;
#150 = DATE_TIME_ROLE ( 'classification_date' ) ;
#151 = AXIS2_PLACEMENT_3D ( 'NONE', #50, #145, #149 ) ;
#152 = AXIS2_PLACEMENT_3D ( 'NONE', #90, #46, #158 ) ;
#153 = ORIENTED_EDGE ( 'NONE', *, *, #54, .F. ) ;
#154 = MECHANICAL_CONTEXT ( 'NONE', #43, 'mechanical' ) ;
#155 = ORIENTED_EDGE ( 'NONE', *, *, #124, .F. ) ;
#156 = DIRECTION ( 'NONE',  ( 0.000000000000000000, -1.000000000000000000, -0.000000000000000000 ) ) ;
#157 = PLANE ( 'NONE',  #115 ) ;
#158 = DIRECTION ( 'NONE',  ( -1.000000000000000000, 0.000000000000000000, 0.000000000000000000 ) ) ;
#159 = DIRECTION ( 'NONE',  ( 0.000000000000000000, 0.000000000000000000, 1.000000000000000000 ) ) ;
#160 = PERSON_AND_ORGANIZATION_ROLE ( 'creator' ) ;
#161 = LINE ( 'NONE', #24, #40 ) ;
#162 = CC_DESIGN_APPROVAL ( #32, ( #107 ) ) ;
#163 = PERSON_AND_ORGANIZATION ( #93, #8 ) ;
#164 = COORDINATED_UNIVERSAL_TIME_OFFSET ( 2, 0, .AHEAD. ) ;
#165 = APPROVAL ( #136, 'UNSPECIFIED' ) ;
#166 = LOCAL_TIME ( 8, 19, 15.00000000000000000, #164 ) ;
#167 = CC_DESIGN_DATE_AND_TIME_ASSIGNMENT ( #146, #150, ( #192 ) ) ;
#168 =( NAMED_UNIT ( * ) PLANE_ANGLE_UNIT ( ) SI_UNIT ( $, .RADIAN. ) );
#169 = ORIENTED_EDGE ( 'NONE', *, *, #185, .F. ) ;
#170 = CLOSED_SHELL ( 'NONE', ( #134, #109, #141, #19, #27 ) ) ;
#171 = SPHERICAL_SURFACE ( 'NONE', #175, 2000.000000000000000 ) ;
#172 = CARTESIAN_POINT ( 'NONE',  ( 0.000000000000000000, 0.000000000000000000, 0.000000000000000000 ) ) ;
#173 = FACE_OUTER_BOUND ( 'NONE', #138, .T. ) ;
#174 = CARTESIAN_POINT ( 'NONE',  ( 0.000000000000000000, 0.000000000000000000, 0.000000000000000000 ) ) ;
#175 = AXIS2_PLACEMENT_3D ( 'NONE', #92, #156, #94 ) ;
#176 = CARTESIAN_POINT ( 'NONE',  ( 0.000000000000000000, 0.000000000000000000, 12.69999999999999929 ) ) ;
#177 = PERSON_AND_ORGANIZATION_ROLE ( 'creator' ) ;
#178 = CARTESIAN_POINT ( 'NONE',  ( 2.428612866367529932E-13, 0.000000000000000000, 12.69999999999993356 ) ) ;
#179 = DESIGN_CONTEXT ( 'detailed design', #7, 'design' ) ;
#180 = VERTEX_POINT ( 'NONE', #78 ) ;
#181 = CIRCLE ( 'NONE', #10, 38.09999999999042331 ) ;
#182 = PRODUCT ( '010-1735E_UVFS_PCV_window', '010-1735E_UVFS_PCV_window', '', ( #154 ) ) ;
#183 = DIRECTION ( 'NONE',  ( 1.224646799147353207E-16, -1.000000000000000000, 0.000000000000000000 ) ) ;
#184 = COORDINATED_UNIVERSAL_TIME_OFFSET ( 2, 0, .AHEAD. ) ;
#185 = EDGE_CURVE ( 'NONE', #60, #117, #2, .T. ) ;
#186 = DIRECTION ( 'NONE',  ( 0.000000000000000000, 0.000000000000000000, 1.000000000000000000 ) ) ;
#187 = DIRECTION ( 'NONE',  ( 1.000000000000000000, 0.000000000000000000, -0.000000000000000000 ) ) ;
#188 = DIRECTION ( 'NONE',  ( 0.000000000000000000, -1.000000000000000000, -0.000000000000000000 ) ) ;
#189 = APPROVAL_DATE_TIME ( #129, #67 ) ;
#190 = APPROVAL_DATE_TIME ( #148, #32 ) ;
#191 = AXIS2_PLACEMENT_3D ( 'NONE', #85, #3, #15 ) ;
#192 = SECURITY_CLASSIFICATION ( '', '', #101 ) ;
#193 = EDGE_LOOP ( 'NONE', ( #153, #18, #80, #62 ) ) ;
#194 = APPROVAL_ROLE ( '' ) ;
#195 = ORIENTED_EDGE ( 'NONE', *, *, #76, .F. ) ;
#196 = PERSON_AND_ORGANIZATION ( #93, #8 ) ;
#197 = FACE_OUTER_BOUND ( 'NONE', #13, .T. ) ;
#198 = APPROVAL_PERSON_ORGANIZATION ( #196, #165, #194 ) ;
#199 = DIRECTION ( 'NONE',  ( 0.000000000000000000, 0.000000000000000000, 1.000000000000000000 ) ) ;
#200 = SPHERICAL_SURFACE ( 'NONE', #139, 2000.000000000000000 ) ;
#201 = APPROVAL_DATE_TIME ( #144, #165 ) ;
ENDSEC;
END-ISO-10303-21;
