ISO-10303-21;
HEADER;
FILE_DESCRIPTION (( 'STEP AP203' ),
    '1' );
FILE_NAME ('010-1730E_UVFS_PCV_window.STEP',
    '2021-02-26T06:18:57',
    ( '' ),
    ( '' ),
    'SwSTEP 2.0',
    'SolidWorks 2019',
    '' );
FILE_SCHEMA (( 'CONFIG_CONTROL_DESIGN' ));
ENDSEC;

DATA;
#1 = CC_DESIGN_PERSON_AND_ORGANIZATION_ASSIGNMENT ( #136, #73, ( #68 ) ) ;
#2 = ORIENTED_EDGE ( 'NONE', *, *, #193, .T. ) ;
#3 = CARTESIAN_POINT ( 'NONE',  ( 0.000000000000000000, 0.000000000000000000, 12.69999999999999929 ) ) ;
#4 = ORIENTED_EDGE ( 'NONE', *, *, #64, .T. ) ;
#5 = AXIS2_PLACEMENT_3D ( 'NONE', #62, #162, #130 ) ;
#6 = DIRECTION ( 'NONE',  ( -1.000000000000000000, 0.000000000000000000, 0.000000000000000000 ) ) ;
#7 = EDGE_LOOP ( 'NONE', ( #138, #51, #131, #55 ) ) ;
#8 = COORDINATED_UNIVERSAL_TIME_OFFSET ( 2, 0, .AHEAD. ) ;
#9 = CALENDAR_DATE ( 2021, 26, 2 ) ;
#10 = APPROVAL_STATUS ( 'not_yet_approved' ) ;
#11 = PERSON_AND_ORGANIZATION ( #38, #57 ) ;
#12 = CIRCLE ( 'NONE', #5, 1500.000000000000000 ) ;
#13 = CC_DESIGN_APPROVAL ( #32, ( #47 ) ) ;
#14 = PRODUCT_DEFINITION_SHAPE ( 'NONE', 'NONE',  #68 ) ;
#15 = SPHERICAL_SURFACE ( 'NONE', #59, 1500.000000000000000 ) ;
#16 = UNCERTAINTY_MEASURE_WITH_UNIT (LENGTH_MEASURE( 1.000000000000000082E-05 ), #114, 'distance_accuracy_value', 'NONE');
#17 = DIRECTION ( 'NONE',  ( 1.000000000000000000, 0.000000000000000000, 0.000000000000000000 ) ) ;
#18 = ADVANCED_FACE ( 'NONE', ( #115 ), #112, .F. ) ;
#19 = CARTESIAN_POINT ( 'NONE',  ( 0.000000000000000000, 0.000000000000000000, 0.000000000000000000 ) ) ;
#20 = ORIENTED_EDGE ( 'NONE', *, *, #42, .F. ) ;
#21 = CYLINDRICAL_SURFACE ( 'NONE', #109, 38.10000000000000142 ) ;
#22 = CLOSED_SHELL ( 'NONE', ( #79, #187, #27, #24, #18 ) ) ;
#23 = CALENDAR_DATE ( 2021, 26, 2 ) ;
#24 = ADVANCED_FACE ( 'NONE', ( #158 ), #134, .F. ) ;
#25 = DATE_AND_TIME ( #23, #98 ) ;
#26 = DIRECTION ( 'NONE',  ( 0.000000000000000000, 0.000000000000000000, 1.000000000000000000 ) ) ;
#27 = ADVANCED_FACE ( 'NONE', ( #184 ), #144, .T. ) ;
#28 = VECTOR ( 'NONE', #65, 1000.000000000000000 ) ;
#29 = CIRCLE ( 'NONE', #105, 1500.000000000000000 ) ;
#30 = LOCAL_TIME ( 8, 18, 57.00000000000000000, #122 ) ;
#31 = DIRECTION ( 'NONE',  ( 1.000000000000000000, 0.000000000000000000, -0.000000000000000000 ) ) ;
#32 = APPROVAL ( #10, 'UNSPECIFIED' ) ;
#33 = DIRECTION ( 'NONE',  ( 1.000000000000000000, 0.000000000000000000, 0.000000000000000000 ) ) ;
#34 = ORIENTED_EDGE ( 'NONE', *, *, #104, .T. ) ;
#35 = ORIENTED_EDGE ( 'NONE', *, *, #87, .F. ) ;
#36 = DIRECTION ( 'NONE',  ( -0.000000000000000000, -0.000000000000000000, -1.000000000000000000 ) ) ;
#37 = CIRCLE ( 'NONE', #153, 38.10000000000000142 ) ;
#38 = PERSON ( 'UNSPECIFIED', 'UNSPECIFIED', 'UNSPECIFIED', ('UNSPECIFIED'), ('UNSPECIFIED'), ('UNSPECIFIED') ) ;
#39 = CC_DESIGN_SECURITY_CLASSIFICATION ( #185, ( #47 ) ) ;
#40 = PERSON_AND_ORGANIZATION ( #38, #57 ) ;
#41 = APPROVAL_ROLE ( '' ) ;
#42 = EDGE_CURVE ( 'NONE', #66, #70, #97, .T. ) ;
#43 = COORDINATED_UNIVERSAL_TIME_OFFSET ( 2, 0, .AHEAD. ) ;
#44 = APPROVAL_PERSON_ORGANIZATION ( #118, #113, #41 ) ;
#45 = PRODUCT ( '010-1730E_UVFS_PCV_window', '010-1730E_UVFS_PCV_window', '', ( #167 ) ) ;
#46 = AXIS2_PLACEMENT_3D ( 'NONE', #19, #50, #31 ) ;
#47 = PRODUCT_DEFINITION_FORMATION_WITH_SPECIFIED_SOURCE ( 'ANY', '', #45, .NOT_KNOWN. ) ;
#48 = PRODUCT_RELATED_PRODUCT_CATEGORY ( 'detail', '', ( #45 ) ) ;
#49 = DIRECTION ( 'NONE',  ( 0.000000000000000000, 0.000000000000000000, 1.000000000000000000 ) ) ;
#50 = DIRECTION ( 'NONE',  ( 0.000000000000000000, 0.000000000000000000, 1.000000000000000000 ) ) ;
#51 = ORIENTED_EDGE ( 'NONE', *, *, #87, .T. ) ;
#52 = EDGE_LOOP ( 'NONE', ( #63, #92, #147 ) ) ;
#53 = DIRECTION ( 'NONE',  ( -0.000000000000000000, -0.000000000000000000, -1.000000000000000000 ) ) ;
#54 = DATE_AND_TIME ( #151, #121 ) ;
#55 = ORIENTED_EDGE ( 'NONE', *, *, #104, .F. ) ;
#56 = PERSON_AND_ORGANIZATION ( #38, #57 ) ;
#57 = ORGANIZATION ( 'UNSPECIFIED', 'UNSPECIFIED', '' ) ;
#58 = APPLICATION_CONTEXT ( 'configuration controlled 3d designs of mechanical parts and assemblies' ) ;
#59 = AXIS2_PLACEMENT_3D ( 'NONE', #142, #172, #33 ) ;
#60 = CARTESIAN_POINT ( 'NONE',  ( 2.722597514376393999E-13, 0.000000000000000000, 12.21605193142227819 ) ) ;
#61 = CARTESIAN_POINT ( 'NONE',  ( 38.10000000000000142, 4.665904304751416087E-15, 0.000000000000000000 ) ) ;
#62 = CARTESIAN_POINT ( 'NONE',  ( 1.804112415015879378E-13, 0.000000000000000000, 1512.216051931422271 ) ) ;
#63 = ORIENTED_EDGE ( 'NONE', *, *, #107, .F. ) ;
#64 = EDGE_CURVE ( 'NONE', #70, #66, #37, .T. ) ;
#65 = DIRECTION ( 'NONE',  ( -0.000000000000000000, -0.000000000000000000, -1.000000000000000000 ) ) ;
#66 = VERTEX_POINT ( 'NONE', #61 ) ;
#67 = CARTESIAN_POINT ( 'NONE',  ( -38.09999999999607212, 0.000000000000000000, 12.69999999999993356 ) ) ;
#68 = PRODUCT_DEFINITION ( 'UNKNOWN', '', #47, #124 ) ;
#69 = DATE_AND_TIME ( #71, #183 ) ;
#70 = VERTEX_POINT ( 'NONE', #156 ) ;
#71 = CALENDAR_DATE ( 2021, 26, 2 ) ;
#72 = DATE_AND_TIME ( #9, #132 ) ;
#73 = PERSON_AND_ORGANIZATION_ROLE ( 'creator' ) ;
#74 = PERSON_AND_ORGANIZATION_ROLE ( 'design_owner' ) ;
#75 = AXIS2_PLACEMENT_3D ( 'NONE', #181, #26, #85 ) ;
#76 = FACE_OUTER_BOUND ( 'NONE', #52, .T. ) ;
#77 = CARTESIAN_POINT ( 'NONE',  ( 0.000000000000000000, 0.000000000000000000, 0.000000000000000000 ) ) ;
#78 = ORIENTED_EDGE ( 'NONE', *, *, #64, .F. ) ;
#79 = ADVANCED_FACE ( 'NONE', ( #76 ), #15, .F. ) ;
#80 = FACE_OUTER_BOUND ( 'NONE', #7, .T. ) ;
#81 = EDGE_LOOP ( 'NONE', ( #78, #20 ) ) ;
#82 = CARTESIAN_POINT ( 'NONE',  ( -38.10000000000000142, 0.000000000000000000, 12.69999999999999929 ) ) ;
#83 = CC_DESIGN_APPROVAL ( #113, ( #68 ) ) ;
#84 = COORDINATED_UNIVERSAL_TIME_OFFSET ( 2, 0, .AHEAD. ) ;
#85 = DIRECTION ( 'NONE',  ( 1.000000000000000000, 0.000000000000000000, 0.000000000000000000 ) ) ;
#86 = SECURITY_CLASSIFICATION_LEVEL ( 'unclassified' ) ;
#87 = EDGE_CURVE ( 'NONE', #179, #66, #111, .T. ) ;
#88 = APPROVAL ( #165, 'UNSPECIFIED' ) ;
#89 = CIRCLE ( 'NONE', #170, 38.09999999999625686 ) ;
#90 = DIRECTION ( 'NONE',  ( -0.000000000000000000, -0.000000000000000000, -1.000000000000000000 ) ) ;
#91 = CARTESIAN_POINT ( 'NONE',  ( 38.10000000000000142, 4.665904304751416087E-15, 12.69999999999999929 ) ) ;
#92 = ORIENTED_EDGE ( 'NONE', *, *, #161, .T. ) ;
#93 = CC_DESIGN_DATE_AND_TIME_ASSIGNMENT ( #54, #117, ( #185 ) ) ;
#94 =( NAMED_UNIT ( * ) PLANE_ANGLE_UNIT ( ) SI_UNIT ( $, .RADIAN. ) );
#95 = ORIENTED_EDGE ( 'NONE', *, *, #168, .T. ) ;
#96 = DIRECTION ( 'NONE',  ( 1.000000000000000000, 0.000000000000000000, 0.000000000000000000 ) ) ;
#97 = CIRCLE ( 'NONE', #199, 38.10000000000000142 ) ;
#98 = LOCAL_TIME ( 8, 18, 57.00000000000000000, #8 ) ;
#99 = PERSON_AND_ORGANIZATION_ROLE ( 'design_supplier' ) ;
#100 = COORDINATED_UNIVERSAL_TIME_OFFSET ( 2, 0, .AHEAD. ) ;
#101 = VERTEX_POINT ( 'NONE', #60 ) ;
#102 = PERSON_AND_ORGANIZATION_ROLE ( 'creator' ) ;
#103 = APPLICATION_PROTOCOL_DEFINITION ( 'international standard', 'config_control_design', 1994, #154 ) ;
#104 = EDGE_CURVE ( 'NONE', #177, #70, #126, .T. ) ;
#105 = AXIS2_PLACEMENT_3D ( 'NONE', #174, #133, #159 ) ;
#106 = MANIFOLD_SOLID_BREP ( 'Cut-Revolve1', #22 ) ;
#107 = EDGE_CURVE ( 'NONE', #177, #179, #148, .T. ) ;
#108 = DATE_AND_TIME ( #123, #30 ) ;
#109 = AXIS2_PLACEMENT_3D ( 'NONE', #3, #53, #6 ) ;
#110 = CARTESIAN_POINT ( 'NONE',  ( 0.000000000000000000, 0.000000000000000000, 12.69999999999999929 ) ) ;
#111 = LINE ( 'NONE', #91, #143 ) ;
#112 = SPHERICAL_SURFACE ( 'NONE', #169, 1500.000000000000000 ) ;
#113 = APPROVAL ( #194, 'UNSPECIFIED' ) ;
#114 =( LENGTH_UNIT ( ) NAMED_UNIT ( * ) SI_UNIT ( .MILLI., .METRE. ) );
#115 = FACE_OUTER_BOUND ( 'NONE', #160, .T. ) ;
#116 = CARTESIAN_POINT ( 'NONE',  ( 1.804112415015879378E-13, 0.000000000000000000, 12.69999999999993356 ) ) ;
#117 = DATE_TIME_ROLE ( 'classification_date' ) ;
#118 = PERSON_AND_ORGANIZATION ( #38, #57 ) ;
#119 = APPROVAL_DATE_TIME ( #25, #32 ) ;
#120 =( NAMED_UNIT ( * ) SI_UNIT ( $, .STERADIAN. ) SOLID_ANGLE_UNIT ( ) );
#121 = LOCAL_TIME ( 8, 18, 57.00000000000000000, #84 ) ;
#122 = COORDINATED_UNIVERSAL_TIME_OFFSET ( 2, 0, .AHEAD. ) ;
#123 = CALENDAR_DATE ( 2021, 26, 2 ) ;
#124 = DESIGN_CONTEXT ( 'detailed design', #58, 'design' ) ;
#125 = AXIS2_PLACEMENT_3D ( 'NONE', #110, #90, #129 ) ;
#126 = LINE ( 'NONE', #82, #28 ) ;
#127 = APPROVAL_PERSON_ORGANIZATION ( #178, #88, #141 ) ;
#128 = CC_DESIGN_PERSON_AND_ORGANIZATION_ASSIGNMENT ( #135, #190, ( #185 ) ) ;
#129 = DIRECTION ( 'NONE',  ( -1.000000000000000000, 0.000000000000000000, 0.000000000000000000 ) ) ;
#130 = DIRECTION ( 'NONE',  ( 0.000000000000000000, 0.000000000000000000, 1.000000000000000000 ) ) ;
#131 = ORIENTED_EDGE ( 'NONE', *, *, #42, .T. ) ;
#132 = LOCAL_TIME ( 8, 18, 57.00000000000000000, #100 ) ;
#133 = DIRECTION ( 'NONE',  ( 1.224646799147353207E-16, -1.000000000000000000, 0.000000000000000000 ) ) ;
#134 = PLANE ( 'NONE',  #46 ) ;
#135 = PERSON_AND_ORGANIZATION ( #38, #57 ) ;
#136 = PERSON_AND_ORGANIZATION ( #38, #57 ) ;
#137 = CC_DESIGN_PERSON_AND_ORGANIZATION_ASSIGNMENT ( #11, #74, ( #45 ) ) ;
#138 = ORIENTED_EDGE ( 'NONE', *, *, #107, .T. ) ;
#139 = APPLICATION_PROTOCOL_DEFINITION ( 'international standard', 'config_control_design', 1994, #58 ) ;
#140 =( GEOMETRIC_REPRESENTATION_CONTEXT ( 3 ) GLOBAL_UNCERTAINTY_ASSIGNED_CONTEXT ( ( #16 ) ) GLOBAL_UNIT_ASSIGNED_CONTEXT ( ( #114, #94, #120 ) ) REPRESENTATION_CONTEXT ( 'NONE', 'WORKASPACE' ) );
#141 = APPROVAL_ROLE ( '' ) ;
#142 = CARTESIAN_POINT ( 'NONE',  ( 1.804112415015879378E-13, 0.000000000000000000, 1512.216051931422271 ) ) ;
#143 = VECTOR ( 'NONE', #198, 1000.000000000000000 ) ;
#144 = CYLINDRICAL_SURFACE ( 'NONE', #125, 38.10000000000000142 ) ;
#145 = EDGE_LOOP ( 'NONE', ( #35, #2, #34, #4 ) ) ;
#146 = DIRECTION ( 'NONE',  ( -0.000000000000000000, -0.000000000000000000, -1.000000000000000000 ) ) ;
#147 = ORIENTED_EDGE ( 'NONE', *, *, #168, .F. ) ;
#148 = CIRCLE ( 'NONE', #195, 38.09999999999625686 ) ;
#149 = CARTESIAN_POINT ( 'NONE',  ( 38.09999999999643450, 4.665904304751197572E-15, 12.69999999999993356 ) ) ;
#150 = ORIENTED_EDGE ( 'NONE', *, *, #193, .F. ) ;
#151 = CALENDAR_DATE ( 2021, 26, 2 ) ;
#152 = APPROVAL_DATE_TIME ( #72, #113 ) ;
#153 = AXIS2_PLACEMENT_3D ( 'NONE', #77, #49, #200 ) ;
#154 = APPLICATION_CONTEXT ( 'configuration controlled 3d designs of mechanical parts and assemblies' ) ;
#155 = SHAPE_DEFINITION_REPRESENTATION ( #14, #191 ) ;
#156 = CARTESIAN_POINT ( 'NONE',  ( -38.10000000000000142, 0.000000000000000000, 0.000000000000000000 ) ) ;
#157 = CARTESIAN_POINT ( 'NONE',  ( 0.000000000000000000, 0.000000000000000000, 0.000000000000000000 ) ) ;
#158 = FACE_OUTER_BOUND ( 'NONE', #81, .T. ) ;
#159 = DIRECTION ( 'NONE',  ( 1.000000000000000000, 1.224646799147353207E-16, 0.000000000000000000 ) ) ;
#160 = EDGE_LOOP ( 'NONE', ( #188, #150, #95 ) ) ;
#161 = EDGE_CURVE ( 'NONE', #177, #101, #29, .T. ) ;
#162 = DIRECTION ( 'NONE',  ( 0.000000000000000000, 1.000000000000000000, -0.000000000000000000 ) ) ;
#163 = APPROVAL_PERSON_ORGANIZATION ( #56, #32, #166 ) ;
#164 = CC_DESIGN_DATE_AND_TIME_ASSIGNMENT ( #69, #192, ( #68 ) ) ;
#165 = APPROVAL_STATUS ( 'not_yet_approved' ) ;
#166 = APPROVAL_ROLE ( '' ) ;
#167 = MECHANICAL_CONTEXT ( 'NONE', #154, 'mechanical' ) ;
#168 = EDGE_CURVE ( 'NONE', #179, #101, #12, .T. ) ;
#169 = AXIS2_PLACEMENT_3D ( 'NONE', #186, #175, #173 ) ;
#170 = AXIS2_PLACEMENT_3D ( 'NONE', #116, #146, #176 ) ;
#171 = DIRECTION ( 'NONE',  ( 0.000000000000000000, 0.000000000000000000, 1.000000000000000000 ) ) ;
#172 = DIRECTION ( 'NONE',  ( 0.000000000000000000, -1.000000000000000000, -0.000000000000000000 ) ) ;
#173 = DIRECTION ( 'NONE',  ( 1.000000000000000000, 0.000000000000000000, 0.000000000000000000 ) ) ;
#174 = CARTESIAN_POINT ( 'NONE',  ( 1.804112415015879378E-13, 0.000000000000000000, 1512.216051931422271 ) ) ;
#175 = DIRECTION ( 'NONE',  ( 0.000000000000000000, -1.000000000000000000, -0.000000000000000000 ) ) ;
#176 = DIRECTION ( 'NONE',  ( 1.000000000000000000, 0.000000000000000000, 0.000000000000000000 ) ) ;
#177 = VERTEX_POINT ( 'NONE', #67 ) ;
#178 = PERSON_AND_ORGANIZATION ( #38, #57 ) ;
#179 = VERTEX_POINT ( 'NONE', #149 ) ;
#180 = PERSON_AND_ORGANIZATION ( #38, #57 ) ;
#181 = CARTESIAN_POINT ( 'NONE',  ( 0.000000000000000000, 0.000000000000000000, 0.000000000000000000 ) ) ;
#182 = CC_DESIGN_PERSON_AND_ORGANIZATION_ASSIGNMENT ( #40, #99, ( #47 ) ) ;
#183 = LOCAL_TIME ( 8, 18, 57.00000000000000000, #43 ) ;
#184 = FACE_OUTER_BOUND ( 'NONE', #145, .T. ) ;
#185 = SECURITY_CLASSIFICATION ( '', '', #86 ) ;
#186 = CARTESIAN_POINT ( 'NONE',  ( 1.804112415015879378E-13, 0.000000000000000000, 1512.216051931422271 ) ) ;
#187 = ADVANCED_FACE ( 'NONE', ( #80 ), #21, .T. ) ;
#188 = ORIENTED_EDGE ( 'NONE', *, *, #161, .F. ) ;
#189 = CARTESIAN_POINT ( 'NONE',  ( 1.804112415015879378E-13, 0.000000000000000000, 12.69999999999993356 ) ) ;
#190 = PERSON_AND_ORGANIZATION_ROLE ( 'classification_officer' ) ;
#191 = ADVANCED_BREP_SHAPE_REPRESENTATION ( '010-1730E_UVFS_PCV_window', ( #106, #75 ), #140 ) ;
#192 = DATE_TIME_ROLE ( 'creation_date' ) ;
#193 = EDGE_CURVE ( 'NONE', #179, #177, #89, .T. ) ;
#194 = APPROVAL_STATUS ( 'not_yet_approved' ) ;
#195 = AXIS2_PLACEMENT_3D ( 'NONE', #189, #36, #96 ) ;
#196 = CC_DESIGN_PERSON_AND_ORGANIZATION_ASSIGNMENT ( #180, #102, ( #47 ) ) ;
#197 = APPROVAL_DATE_TIME ( #108, #88 ) ;
#198 = DIRECTION ( 'NONE',  ( -0.000000000000000000, -0.000000000000000000, -1.000000000000000000 ) ) ;
#199 = AXIS2_PLACEMENT_3D ( 'NONE', #157, #171, #17 ) ;
#200 = DIRECTION ( 'NONE',  ( 1.000000000000000000, 0.000000000000000000, 0.000000000000000000 ) ) ;
#201 = CC_DESIGN_APPROVAL ( #88, ( #185 ) ) ;
ENDSEC;
END-ISO-10303-21;
