ISO-10303-21;
HEADER;
FILE_DESCRIPTION (( 'STEP AP203' ),
    '1' );
FILE_NAME ('010-1725E_UVFS_PCV_window.STEP',
    '2021-02-26T06:18:37',
    ( '' ),
    ( '' ),
    'SwSTEP 2.0',
    'SolidWorks 2019',
    '' );
FILE_SCHEMA (( 'CONFIG_CONTROL_DESIGN' ));
ENDSEC;

DATA;
#1 = AXIS2_PLACEMENT_3D ( 'NONE', #8, #37, #133 ) ;
#2 = CARTESIAN_POINT ( 'NONE',  ( 0.000000000000000000, 0.000000000000000000, 12.69999999999999929 ) ) ;
#3 = ORIENTED_EDGE ( 'NONE', *, *, #177, .F. ) ;
#4 = FACE_OUTER_BOUND ( 'NONE', #172, .T. ) ;
#5 = AXIS2_PLACEMENT_3D ( 'NONE', #2, #87, #154 ) ;
#6 = ADVANCED_FACE ( 'NONE', ( #35 ), #69, .F. ) ;
#7 = DATE_TIME_ROLE ( 'creation_date' ) ;
#8 = CARTESIAN_POINT ( 'NONE',  ( 1.249000902703301108E-13, 0.000000000000000000, 1011.973931412202887 ) ) ;
#9 = CARTESIAN_POINT ( 'NONE',  ( 1.249000902703301108E-13, 0.000000000000000000, 12.70000000000004547 ) ) ;
#10 = APPROVAL_ROLE ( '' ) ;
#11 = AXIS2_PLACEMENT_3D ( 'NONE', #160, #88, #143 ) ;
#12 = PERSON_AND_ORGANIZATION ( #180, #38 ) ;
#13 = DATE_AND_TIME ( #43, #191 ) ;
#14 = PERSON_AND_ORGANIZATION_ROLE ( 'classification_officer' ) ;
#15 = EDGE_LOOP ( 'NONE', ( #71, #171 ) ) ;
#16 = FACE_OUTER_BOUND ( 'NONE', #131, .T. ) ;
#17 = AXIS2_PLACEMENT_3D ( 'NONE', #75, #56, #54 ) ;
#18 = DIRECTION ( 'NONE',  ( -1.000000000000000000, 0.000000000000000000, 0.000000000000000000 ) ) ;
#19 = CC_DESIGN_PERSON_AND_ORGANIZATION_ASSIGNMENT ( #95, #42, ( #57 ) ) ;
#20 = DESIGN_CONTEXT ( 'detailed design', #150, 'design' ) ;
#21 = DIRECTION ( 'NONE',  ( 0.000000000000000000, -1.000000000000000000, -0.000000000000000000 ) ) ;
#22 = EDGE_CURVE ( 'NONE', #97, #128, #85, .T. ) ;
#23 = ORIENTED_EDGE ( 'NONE', *, *, #67, .T. ) ;
#24 = PERSON_AND_ORGANIZATION_ROLE ( 'design_owner' ) ;
#25 = CLOSED_SHELL ( 'NONE', ( #130, #90, #113, #134, #6 ) ) ;
#26 = LINE ( 'NONE', #28, #200 ) ;
#27 = PRODUCT_RELATED_PRODUCT_CATEGORY ( 'detail', '', ( #183 ) ) ;
#28 = CARTESIAN_POINT ( 'NONE',  ( 38.10000000000000142, 4.665904304751416087E-15, 12.69999999999999929 ) ) ;
#29 = CALENDAR_DATE ( 2021, 26, 2 ) ;
#30 = COORDINATED_UNIVERSAL_TIME_OFFSET ( 2, 0, .AHEAD. ) ;
#31 = LOCAL_TIME ( 8, 18, 37.00000000000000000, #89 ) ;
#32 = CARTESIAN_POINT ( 'NONE',  ( 38.09999999999783427, 4.665904304751283558E-15, 12.70000000000004547 ) ) ;
#33 = CYLINDRICAL_SURFACE ( 'NONE', #5, 38.10000000000000142 ) ;
#34 = CARTESIAN_POINT ( 'NONE',  ( 1.249000902703301108E-13, 0.000000000000000000, 1011.973931412202887 ) ) ;
#35 = FACE_OUTER_BOUND ( 'NONE', #153, .T. ) ;
#36 = APPROVAL_PERSON_ORGANIZATION ( #40, #41, #10 ) ;
#37 = DIRECTION ( 'NONE',  ( 0.000000000000000000, -1.000000000000000000, -0.000000000000000000 ) ) ;
#38 = ORGANIZATION ( 'UNSPECIFIED', 'UNSPECIFIED', '' ) ;
#39 = APPROVAL_STATUS ( 'not_yet_approved' ) ;
#40 = PERSON_AND_ORGANIZATION ( #180, #38 ) ;
#41 = APPROVAL ( #39, 'UNSPECIFIED' ) ;
#42 = PERSON_AND_ORGANIZATION_ROLE ( 'creator' ) ;
#43 = CALENDAR_DATE ( 2021, 26, 2 ) ;
#44 = ORIENTED_EDGE ( 'NONE', *, *, #46, .T. ) ;
#45 = ORIENTED_EDGE ( 'NONE', *, *, #67, .F. ) ;
#46 = EDGE_CURVE ( 'NONE', #138, #128, #99, .T. ) ;
#47 = ORIENTED_EDGE ( 'NONE', *, *, #188, .F. ) ;
#48 = ORIENTED_EDGE ( 'NONE', *, *, #126, .T. ) ;
#49 = AXIS2_PLACEMENT_3D ( 'NONE', #34, #21, #157 ) ;
#50 = DIRECTION ( 'NONE',  ( 0.000000000000000000, 0.000000000000000000, 1.000000000000000000 ) ) ;
#51 = EDGE_LOOP ( 'NONE', ( #65, #23, #159 ) ) ;
#52 = ORIENTED_EDGE ( 'NONE', *, *, #46, .F. ) ;
#53 =( NAMED_UNIT ( * ) SI_UNIT ( $, .STERADIAN. ) SOLID_ANGLE_UNIT ( ) );
#54 = DIRECTION ( 'NONE',  ( 1.000000000000000000, 0.000000000000000000, 0.000000000000000000 ) ) ;
#55 = PRODUCT_DEFINITION ( 'UNKNOWN', '', #57, #20 ) ;
#56 = DIRECTION ( 'NONE',  ( 0.000000000000000000, 0.000000000000000000, 1.000000000000000000 ) ) ;
#57 = PRODUCT_DEFINITION_FORMATION_WITH_SPECIFIED_SOURCE ( 'ANY', '', #183, .NOT_KNOWN. ) ;
#58 = CC_DESIGN_APPROVAL ( #84, ( #92 ) ) ;
#59 = DIRECTION ( 'NONE',  ( -0.000000000000000000, -0.000000000000000000, -1.000000000000000000 ) ) ;
#60 = CIRCLE ( 'NONE', #94, 38.10000000000000142 ) ;
#61 = CC_DESIGN_DATE_AND_TIME_ASSIGNMENT ( #201, #93, ( #92 ) ) ;
#62 = SECURITY_CLASSIFICATION_LEVEL ( 'unclassified' ) ;
#63 = APPROVAL_DATE_TIME ( #182, #70 ) ;
#64 = LOCAL_TIME ( 8, 18, 37.00000000000000000, #114 ) ;
#65 = ORIENTED_EDGE ( 'NONE', *, *, #155, .F. ) ;
#66 = CYLINDRICAL_SURFACE ( 'NONE', #115, 38.10000000000000142 ) ;
#67 = EDGE_CURVE ( 'NONE', #138, #192, #168, .T. ) ;
#68 = DIRECTION ( 'NONE',  ( 1.224646799147353207E-16, -1.000000000000000000, 0.000000000000000000 ) ) ;
#69 = SPHERICAL_SURFACE ( 'NONE', #49, 999.9999999999998863 ) ;
#70 = APPROVAL ( #151, 'UNSPECIFIED' ) ;
#71 = ORIENTED_EDGE ( 'NONE', *, *, #81, .F. ) ;
#72 = PERSON_AND_ORGANIZATION ( #180, #38 ) ;
#73 = CIRCLE ( 'NONE', #103, 38.09999999999771347 ) ;
#74 = CIRCLE ( 'NONE', #11, 38.09999999999771347 ) ;
#75 = CARTESIAN_POINT ( 'NONE',  ( 0.000000000000000000, 0.000000000000000000, 0.000000000000000000 ) ) ;
#76 = APPROVAL_DATE_TIME ( #146, #41 ) ;
#77 = AXIS2_PLACEMENT_3D ( 'NONE', #129, #193, #50 ) ;
#78 = COORDINATED_UNIVERSAL_TIME_OFFSET ( 2, 0, .AHEAD. ) ;
#79 = CALENDAR_DATE ( 2021, 26, 2 ) ;
#80 = DIRECTION ( 'NONE',  ( -0.000000000000000000, -0.000000000000000000, -1.000000000000000000 ) ) ;
#81 = EDGE_CURVE ( 'NONE', #128, #97, #60, .T. ) ;
#82 = VERTEX_POINT ( 'NONE', #32 ) ;
#83 = DIRECTION ( 'NONE',  ( 0.000000000000000000, 0.000000000000000000, 1.000000000000000000 ) ) ;
#84 = APPROVAL ( #91, 'UNSPECIFIED' ) ;
#85 = CIRCLE ( 'NONE', #197, 38.10000000000000142 ) ;
#86 = APPROVAL_PERSON_ORGANIZATION ( #110, #84, #169 ) ;
#87 = DIRECTION ( 'NONE',  ( -0.000000000000000000, -0.000000000000000000, -1.000000000000000000 ) ) ;
#88 = DIRECTION ( 'NONE',  ( -0.000000000000000000, -0.000000000000000000, -1.000000000000000000 ) ) ;
#89 = COORDINATED_UNIVERSAL_TIME_OFFSET ( 2, 0, .AHEAD. ) ;
#90 = ADVANCED_FACE ( 'NONE', ( #4 ), #33, .T. ) ;
#91 = APPROVAL_STATUS ( 'not_yet_approved' ) ;
#92 = SECURITY_CLASSIFICATION ( '', '', #62 ) ;
#93 = DATE_TIME_ROLE ( 'classification_date' ) ;
#94 = AXIS2_PLACEMENT_3D ( 'NONE', #139, #83, #119 ) ;
#95 = PERSON_AND_ORGANIZATION ( #180, #38 ) ;
#96 = CC_DESIGN_PERSON_AND_ORGANIZATION_ASSIGNMENT ( #161, #24, ( #183 ) ) ;
#97 = VERTEX_POINT ( 'NONE', #98 ) ;
#98 = CARTESIAN_POINT ( 'NONE',  ( 38.10000000000000142, 4.665904304751416087E-15, 0.000000000000000000 ) ) ;
#99 = LINE ( 'NONE', #140, #165 ) ;
#100 = UNCERTAINTY_MEASURE_WITH_UNIT (LENGTH_MEASURE( 1.000000000000000082E-05 ), #124, 'distance_accuracy_value', 'NONE');
#101 = ORIENTED_EDGE ( 'NONE', *, *, #188, .T. ) ;
#102 = CARTESIAN_POINT ( 'NONE',  ( 0.000000000000000000, 0.000000000000000000, 0.000000000000000000 ) ) ;
#103 = AXIS2_PLACEMENT_3D ( 'NONE', #9, #176, #179 ) ;
#104 = CARTESIAN_POINT ( 'NONE',  ( 1.249000902703301108E-13, 0.000000000000000000, 1011.973931412202887 ) ) ;
#105 =( NAMED_UNIT ( * ) PLANE_ANGLE_UNIT ( ) SI_UNIT ( $, .RADIAN. ) );
#106 = CARTESIAN_POINT ( 'NONE',  ( 1.861324302276977606E-13, 0.000000000000000000, 11.97393141220304358 ) ) ;
#107 = COORDINATED_UNIVERSAL_TIME_OFFSET ( 2, 0, .AHEAD. ) ;
#108 = DIRECTION ( 'NONE',  ( 1.000000000000000000, 0.000000000000000000, -0.000000000000000000 ) ) ;
#109 = PERSON_AND_ORGANIZATION_ROLE ( 'creator' ) ;
#110 = PERSON_AND_ORGANIZATION ( #180, #38 ) ;
#111 =( GEOMETRIC_REPRESENTATION_CONTEXT ( 3 ) GLOBAL_UNCERTAINTY_ASSIGNED_CONTEXT ( ( #100 ) ) GLOBAL_UNIT_ASSIGNED_CONTEXT ( ( #124, #105, #53 ) ) REPRESENTATION_CONTEXT ( 'NONE', 'WORKASPACE' ) );
#112 = CALENDAR_DATE ( 2021, 26, 2 ) ;
#113 = ADVANCED_FACE ( 'NONE', ( #16 ), #66, .T. ) ;
#114 = COORDINATED_UNIVERSAL_TIME_OFFSET ( 2, 0, .AHEAD. ) ;
#115 = AXIS2_PLACEMENT_3D ( 'NONE', #117, #80, #18 ) ;
#116 = DIRECTION ( 'NONE',  ( 1.000000000000000000, 0.000000000000000000, 0.000000000000000000 ) ) ;
#117 = CARTESIAN_POINT ( 'NONE',  ( 0.000000000000000000, 0.000000000000000000, 12.69999999999999929 ) ) ;
#118 = MANIFOLD_SOLID_BREP ( 'Cut-Revolve1', #25 ) ;
#119 = DIRECTION ( 'NONE',  ( 1.000000000000000000, 0.000000000000000000, 0.000000000000000000 ) ) ;
#120 = ORIENTED_EDGE ( 'NONE', *, *, #155, .T. ) ;
#121 = DIRECTION ( 'NONE',  ( 0.000000000000000000, 0.000000000000000000, 1.000000000000000000 ) ) ;
#122 = PERSON_AND_ORGANIZATION ( #180, #38 ) ;
#123 = DATE_AND_TIME ( #196, #141 ) ;
#124 =( LENGTH_UNIT ( ) NAMED_UNIT ( * ) SI_UNIT ( .MILLI., .METRE. ) );
#125 = AXIS2_PLACEMENT_3D ( 'NONE', #104, #68, #170 ) ;
#126 = EDGE_CURVE ( 'NONE', #82, #192, #158, .T. ) ;
#127 = PERSON_AND_ORGANIZATION ( #180, #38 ) ;
#128 = VERTEX_POINT ( 'NONE', #142 ) ;
#129 = CARTESIAN_POINT ( 'NONE',  ( 1.249000902703301108E-13, 0.000000000000000000, 1011.973931412202887 ) ) ;
#130 = ADVANCED_FACE ( 'NONE', ( #198 ), #147, .F. ) ;
#131 = EDGE_LOOP ( 'NONE', ( #47, #194, #44, #175 ) ) ;
#132 = APPLICATION_PROTOCOL_DEFINITION ( 'international standard', 'config_control_design', 1994, #167 ) ;
#133 = DIRECTION ( 'NONE',  ( 1.000000000000000000, 0.000000000000000000, 0.000000000000000000 ) ) ;
#134 = ADVANCED_FACE ( 'NONE', ( #195 ), #164, .F. ) ;
#135 = ADVANCED_BREP_SHAPE_REPRESENTATION ( '010-1725E_UVFS_PCV_window', ( #118, #17 ), #111 ) ;
#136 = PERSON_AND_ORGANIZATION_ROLE ( 'design_supplier' ) ;
#137 = APPROVAL_ROLE ( '' ) ;
#138 = VERTEX_POINT ( 'NONE', #162 ) ;
#139 = CARTESIAN_POINT ( 'NONE',  ( 0.000000000000000000, 0.000000000000000000, 0.000000000000000000 ) ) ;
#140 = CARTESIAN_POINT ( 'NONE',  ( -38.10000000000000142, 0.000000000000000000, 12.69999999999999929 ) ) ;
#141 = LOCAL_TIME ( 8, 18, 37.00000000000000000, #107 ) ;
#142 = CARTESIAN_POINT ( 'NONE',  ( -38.10000000000000142, 0.000000000000000000, 0.000000000000000000 ) ) ;
#143 = DIRECTION ( 'NONE',  ( 1.000000000000000000, 0.000000000000000000, 0.000000000000000000 ) ) ;
#144 = CC_DESIGN_PERSON_AND_ORGANIZATION_ASSIGNMENT ( #122, #109, ( #55 ) ) ;
#145 = CC_DESIGN_APPROVAL ( #41, ( #55 ) ) ;
#146 = DATE_AND_TIME ( #29, #31 ) ;
#147 = SPHERICAL_SURFACE ( 'NONE', #1, 999.9999999999998863 ) ;
#148 = APPROVAL_DATE_TIME ( #13, #84 ) ;
#149 = APPROVAL_PERSON_ORGANIZATION ( #72, #70, #137 ) ;
#150 = APPLICATION_CONTEXT ( 'configuration controlled 3d designs of mechanical parts and assemblies' ) ;
#151 = APPROVAL_STATUS ( 'not_yet_approved' ) ;
#152 = CC_DESIGN_PERSON_AND_ORGANIZATION_ASSIGNMENT ( #127, #136, ( #57 ) ) ;
#153 = EDGE_LOOP ( 'NONE', ( #45, #3, #48 ) ) ;
#154 = DIRECTION ( 'NONE',  ( -1.000000000000000000, 0.000000000000000000, 0.000000000000000000 ) ) ;
#155 = EDGE_CURVE ( 'NONE', #138, #82, #73, .T. ) ;
#156 = DIRECTION ( 'NONE',  ( -0.000000000000000000, -0.000000000000000000, -1.000000000000000000 ) ) ;
#157 = DIRECTION ( 'NONE',  ( 1.000000000000000000, 0.000000000000000000, 0.000000000000000000 ) ) ;
#158 = CIRCLE ( 'NONE', #77, 999.9999999999997726 ) ;
#159 = ORIENTED_EDGE ( 'NONE', *, *, #126, .F. ) ;
#160 = CARTESIAN_POINT ( 'NONE',  ( 1.249000902703301108E-13, 0.000000000000000000, 12.70000000000004547 ) ) ;
#161 = PERSON_AND_ORGANIZATION ( #180, #38 ) ;
#162 = CARTESIAN_POINT ( 'NONE',  ( -38.09999999999758558, 0.000000000000000000, 12.70000000000004547 ) ) ;
#163 = CARTESIAN_POINT ( 'NONE',  ( 0.000000000000000000, 0.000000000000000000, 0.000000000000000000 ) ) ;
#164 = PLANE ( 'NONE',  #190 ) ;
#165 = VECTOR ( 'NONE', #156, 1000.000000000000000 ) ;
#166 = CC_DESIGN_SECURITY_CLASSIFICATION ( #92, ( #57 ) ) ;
#167 = APPLICATION_CONTEXT ( 'configuration controlled 3d designs of mechanical parts and assemblies' ) ;
#168 = CIRCLE ( 'NONE', #125, 999.9999999999998863 ) ;
#169 = APPROVAL_ROLE ( '' ) ;
#170 = DIRECTION ( 'NONE',  ( 1.000000000000000000, 1.224646799147353207E-16, 0.000000000000000000 ) ) ;
#171 = ORIENTED_EDGE ( 'NONE', *, *, #22, .F. ) ;
#172 = EDGE_LOOP ( 'NONE', ( #120, #101, #189, #52 ) ) ;
#173 = CC_DESIGN_DATE_AND_TIME_ASSIGNMENT ( #123, #7, ( #55 ) ) ;
#174 = DIRECTION ( 'NONE',  ( 0.000000000000000000, 0.000000000000000000, 1.000000000000000000 ) ) ;
#175 = ORIENTED_EDGE ( 'NONE', *, *, #81, .T. ) ;
#176 = DIRECTION ( 'NONE',  ( -0.000000000000000000, -0.000000000000000000, -1.000000000000000000 ) ) ;
#177 = EDGE_CURVE ( 'NONE', #82, #138, #74, .T. ) ;
#178 = MECHANICAL_CONTEXT ( 'NONE', #167, 'mechanical' ) ;
#179 = DIRECTION ( 'NONE',  ( 1.000000000000000000, 0.000000000000000000, 0.000000000000000000 ) ) ;
#180 = PERSON ( 'UNSPECIFIED', 'UNSPECIFIED', 'UNSPECIFIED', ('UNSPECIFIED'), ('UNSPECIFIED'), ('UNSPECIFIED') ) ;
#181 = APPLICATION_PROTOCOL_DEFINITION ( 'international standard', 'config_control_design', 1994, #150 ) ;
#182 = DATE_AND_TIME ( #79, #64 ) ;
#183 = PRODUCT ( '010-1725E_UVFS_PCV_window', '010-1725E_UVFS_PCV_window', '', ( #178 ) ) ;
#184 = LOCAL_TIME ( 8, 18, 37.00000000000000000, #30 ) ;
#185 = CC_DESIGN_APPROVAL ( #70, ( #57 ) ) ;
#186 = CC_DESIGN_PERSON_AND_ORGANIZATION_ASSIGNMENT ( #12, #14, ( #92 ) ) ;
#187 = PRODUCT_DEFINITION_SHAPE ( 'NONE', 'NONE',  #55 ) ;
#188 = EDGE_CURVE ( 'NONE', #82, #97, #26, .T. ) ;
#189 = ORIENTED_EDGE ( 'NONE', *, *, #22, .T. ) ;
#190 = AXIS2_PLACEMENT_3D ( 'NONE', #163, #121, #108 ) ;
#191 = LOCAL_TIME ( 8, 18, 37.00000000000000000, #78 ) ;
#192 = VERTEX_POINT ( 'NONE', #106 ) ;
#193 = DIRECTION ( 'NONE',  ( 0.000000000000000000, 1.000000000000000000, -0.000000000000000000 ) ) ;
#194 = ORIENTED_EDGE ( 'NONE', *, *, #177, .T. ) ;
#195 = FACE_OUTER_BOUND ( 'NONE', #15, .T. ) ;
#196 = CALENDAR_DATE ( 2021, 26, 2 ) ;
#197 = AXIS2_PLACEMENT_3D ( 'NONE', #102, #174, #116 ) ;
#198 = FACE_OUTER_BOUND ( 'NONE', #51, .T. ) ;
#199 = SHAPE_DEFINITION_REPRESENTATION ( #187, #135 ) ;
#200 = VECTOR ( 'NONE', #59, 1000.000000000000000 ) ;
#201 = DATE_AND_TIME ( #112, #184 ) ;
ENDSEC;
END-ISO-10303-21;
