ISO-10303-21;
HEADER;
FILE_DESCRIPTION (( 'STEP AP203' ),
    '1' );
FILE_NAME ('010-1714E_UVFS_PCV_window.STEP',
    '2021-02-26T06:17:55',
    ( '' ),
    ( '' ),
    'SwSTEP 2.0',
    'SolidWorks 2019',
    '' );
FILE_SCHEMA (( 'CONFIG_CONTROL_DESIGN' ));
ENDSEC;

DATA;
#1 = DATE_AND_TIME ( #73, #137 ) ;
#2 = EDGE_CURVE ( 'NONE', #176, #178, #66, .T. ) ;
#3 = AXIS2_PLACEMENT_3D ( 'NONE', #172, #56, #68 ) ;
#4 = LOCAL_TIME ( 8, 17, 55.00000000000000000, #17 ) ;
#5 = AXIS2_PLACEMENT_3D ( 'NONE', #121, #6, #136 ) ;
#6 = DIRECTION ( 'NONE',  ( 1.224646799147353207E-16, -1.000000000000000000, 0.000000000000000000 ) ) ;
#7 = CYLINDRICAL_SURFACE ( 'NONE', #38, 38.10000000000000142 ) ;
#8 = APPROVAL_PERSON_ORGANIZATION ( #189, #147, #157 ) ;
#9 = ORIENTED_EDGE ( 'NONE', *, *, #134, .T. ) ;
#10 = CIRCLE ( 'NONE', #5, 599.9999999999998863 ) ;
#11 = CARTESIAN_POINT ( 'NONE',  ( 0.000000000000000000, 0.000000000000000000, 0.000000000000000000 ) ) ;
#12 = CC_DESIGN_PERSON_AND_ORGANIZATION_ASSIGNMENT ( #71, #100, ( #145 ) ) ;
#13 = CARTESIAN_POINT ( 'NONE',  ( 7.632783294297951215E-14, 0.000000000000000000, 12.70000000000004547 ) ) ;
#14 = APPROVAL_PERSON_ORGANIZATION ( #34, #167, #43 ) ;
#15 = CIRCLE ( 'NONE', #143, 599.9999999999998863 ) ;
#16 = PERSON ( 'UNSPECIFIED', 'UNSPECIFIED', 'UNSPECIFIED', ('UNSPECIFIED'), ('UNSPECIFIED'), ('UNSPECIFIED') ) ;
#17 = COORDINATED_UNIVERSAL_TIME_OFFSET ( 2, 0, .AHEAD. ) ;
#18 = EDGE_CURVE ( 'NONE', #178, #115, #192, .T. ) ;
#19 = DATE_TIME_ROLE ( 'creation_date' ) ;
#20 = COORDINATED_UNIVERSAL_TIME_OFFSET ( 2, 0, .AHEAD. ) ;
#21 = ORIENTED_EDGE ( 'NONE', *, *, #98, .T. ) ;
#22 = CIRCLE ( 'NONE', #53, 38.09999999999771347 ) ;
#23 = LINE ( 'NONE', #177, #77 ) ;
#24 = UNCERTAINTY_MEASURE_WITH_UNIT (LENGTH_MEASURE( 1.000000000000000082E-05 ), #99, 'distance_accuracy_value', 'NONE');
#25 = LOCAL_TIME ( 8, 17, 55.00000000000000000, #118 ) ;
#26 = ADVANCED_FACE ( 'NONE', ( #154 ), #170, .F. ) ;
#27 = PRODUCT ( '010-1714E_UVFS_PCV_window', '010-1714E_UVFS_PCV_window', '', ( #32 ) ) ;
#28 = CARTESIAN_POINT ( 'NONE',  ( 7.632783294297951215E-14, 0.000000000000000000, 611.4891031072626220 ) ) ;
#29 = DIRECTION ( 'NONE',  ( -0.000000000000000000, -0.000000000000000000, -1.000000000000000000 ) ) ;
#30 = CARTESIAN_POINT ( 'NONE',  ( 1.130672369174001071E-13, 0.000000000000000000, 11.48910310726281025 ) ) ;
#31 = FACE_OUTER_BOUND ( 'NONE', #131, .T. ) ;
#32 = MECHANICAL_CONTEXT ( 'NONE', #74, 'mechanical' ) ;
#33 = ORGANIZATION ( 'UNSPECIFIED', 'UNSPECIFIED', '' ) ;
#34 = PERSON_AND_ORGANIZATION ( #16, #33 ) ;
#35 = APPLICATION_PROTOCOL_DEFINITION ( 'international standard', 'config_control_design', 1994, #44 ) ;
#36 = PERSON_AND_ORGANIZATION ( #16, #33 ) ;
#37 = ADVANCED_FACE ( 'NONE', ( #31 ), #65, .T. ) ;
#38 = AXIS2_PLACEMENT_3D ( 'NONE', #168, #82, #79 ) ;
#39 = ORIENTED_EDGE ( 'NONE', *, *, #2, .F. ) ;
#40 = ORIENTED_EDGE ( 'NONE', *, *, #134, .F. ) ;
#41 = EDGE_CURVE ( 'NONE', #163, #46, #10, .T. ) ;
#42 = SHAPE_DEFINITION_REPRESENTATION ( #49, #75 ) ;
#43 = APPROVAL_ROLE ( '' ) ;
#44 = APPLICATION_CONTEXT ( 'configuration controlled 3d designs of mechanical parts and assemblies' ) ;
#45 = EDGE_CURVE ( 'NONE', #176, #163, #89, .T. ) ;
#46 = VERTEX_POINT ( 'NONE', #30 ) ;
#47 = CARTESIAN_POINT ( 'NONE',  ( 7.632783294297951215E-14, 0.000000000000000000, 12.70000000000004547 ) ) ;
#48 = CARTESIAN_POINT ( 'NONE',  ( 0.000000000000000000, 0.000000000000000000, 0.000000000000000000 ) ) ;
#49 = PRODUCT_DEFINITION_SHAPE ( 'NONE', 'NONE',  #165 ) ;
#50 = CARTESIAN_POINT ( 'NONE',  ( -38.09999999999763531, 0.000000000000000000, 12.70000000000004547 ) ) ;
#51 = CC_DESIGN_APPROVAL ( #167, ( #145 ) ) ;
#52 = ORIENTED_EDGE ( 'NONE', *, *, #41, .F. ) ;
#53 = AXIS2_PLACEMENT_3D ( 'NONE', #13, #29, #138 ) ;
#54 = PERSON_AND_ORGANIZATION ( #16, #33 ) ;
#55 = CC_DESIGN_DATE_AND_TIME_ASSIGNMENT ( #97, #19, ( #165 ) ) ;
#56 = DIRECTION ( 'NONE',  ( 0.000000000000000000, 0.000000000000000000, 1.000000000000000000 ) ) ;
#57 = PERSON_AND_ORGANIZATION_ROLE ( 'creator' ) ;
#58 = PERSON_AND_ORGANIZATION ( #16, #33 ) ;
#59 = CARTESIAN_POINT ( 'NONE',  ( 38.09999999999779163, 4.665904304751280403E-15, 12.70000000000004547 ) ) ;
#60 = APPROVAL_STATUS ( 'not_yet_approved' ) ;
#61 = ADVANCED_FACE ( 'NONE', ( #104 ), #153, .F. ) ;
#62 = EDGE_LOOP ( 'NONE', ( #52, #95, #91 ) ) ;
#63 = DIRECTION ( 'NONE',  ( 1.000000000000000000, 0.000000000000000000, 0.000000000000000000 ) ) ;
#64 = CC_DESIGN_PERSON_AND_ORGANIZATION_ASSIGNMENT ( #142, #110, ( #165 ) ) ;
#65 = CYLINDRICAL_SURFACE ( 'NONE', #139, 38.10000000000000142 ) ;
#66 = LINE ( 'NONE', #169, #103 ) ;
#67 = DIRECTION ( 'NONE',  ( 0.000000000000000000, 0.000000000000000000, 1.000000000000000000 ) ) ;
#68 = DIRECTION ( 'NONE',  ( 1.000000000000000000, 0.000000000000000000, 0.000000000000000000 ) ) ;
#69 = DATE_AND_TIME ( #85, #191 ) ;
#70 = LOCAL_TIME ( 8, 17, 55.00000000000000000, #158 ) ;
#71 = PERSON_AND_ORGANIZATION ( #16, #33 ) ;
#72 = ORIENTED_EDGE ( 'NONE', *, *, #45, .T. ) ;
#73 = CALENDAR_DATE ( 2021, 26, 2 ) ;
#74 = APPLICATION_CONTEXT ( 'configuration controlled 3d designs of mechanical parts and assemblies' ) ;
#75 = ADVANCED_BREP_SHAPE_REPRESENTATION ( '010-1714E_UVFS_PCV_window', ( #175, #3 ), #116 ) ;
#76 = APPROVAL ( #83, 'UNSPECIFIED' ) ;
#77 = VECTOR ( 'NONE', #87, 1000.000000000000000 ) ;
#78 = CARTESIAN_POINT ( 'NONE',  ( 7.632783294297951215E-14, 0.000000000000000000, 611.4891031072626220 ) ) ;
#79 = DIRECTION ( 'NONE',  ( -1.000000000000000000, 0.000000000000000000, 0.000000000000000000 ) ) ;
#80 = DIRECTION ( 'NONE',  ( 0.000000000000000000, 0.000000000000000000, 1.000000000000000000 ) ) ;
#81 = DIRECTION ( 'NONE',  ( 1.000000000000000000, 0.000000000000000000, -0.000000000000000000 ) ) ;
#82 = DIRECTION ( 'NONE',  ( -0.000000000000000000, -0.000000000000000000, -1.000000000000000000 ) ) ;
#83 = APPROVAL_STATUS ( 'not_yet_approved' ) ;
#84 = AXIS2_PLACEMENT_3D ( 'NONE', #105, #193, #63 ) ;
#85 = CALENDAR_DATE ( 2021, 26, 2 ) ;
#86 = APPROVAL_STATUS ( 'not_yet_approved' ) ;
#87 = DIRECTION ( 'NONE',  ( -0.000000000000000000, -0.000000000000000000, -1.000000000000000000 ) ) ;
#88 =( NAMED_UNIT ( * ) PLANE_ANGLE_UNIT ( ) SI_UNIT ( $, .RADIAN. ) );
#89 = CIRCLE ( 'NONE', #129, 38.09999999999771347 ) ;
#90 = DIRECTION ( 'NONE',  ( -1.000000000000000000, 0.000000000000000000, 0.000000000000000000 ) ) ;
#91 = ORIENTED_EDGE ( 'NONE', *, *, #101, .T. ) ;
#92 = DIRECTION ( 'NONE',  ( 0.000000000000000000, 1.000000000000000000, -0.000000000000000000 ) ) ;
#93 = DIRECTION ( 'NONE',  ( 0.000000000000000000, -1.000000000000000000, -0.000000000000000000 ) ) ;
#94 = ADVANCED_FACE ( 'NONE', ( #196 ), #7, .T. ) ;
#95 = ORIENTED_EDGE ( 'NONE', *, *, #45, .F. ) ;
#96 = CC_DESIGN_SECURITY_CLASSIFICATION ( #145, ( #149 ) ) ;
#97 = DATE_AND_TIME ( #199, #70 ) ;
#98 = EDGE_CURVE ( 'NONE', #163, #176, #22, .T. ) ;
#99 =( LENGTH_UNIT ( ) NAMED_UNIT ( * ) SI_UNIT ( .MILLI., .METRE. ) );
#100 = PERSON_AND_ORGANIZATION_ROLE ( 'classification_officer' ) ;
#101 = EDGE_CURVE ( 'NONE', #176, #46, #15, .T. ) ;
#102 = EDGE_LOOP ( 'NONE', ( #21, #148, #182, #197 ) ) ;
#103 = VECTOR ( 'NONE', #186, 1000.000000000000000 ) ;
#104 = FACE_OUTER_BOUND ( 'NONE', #62, .T. ) ;
#105 = CARTESIAN_POINT ( 'NONE',  ( 0.000000000000000000, 0.000000000000000000, 0.000000000000000000 ) ) ;
#106 = PLANE ( 'NONE',  #152 ) ;
#107 = PRODUCT_RELATED_PRODUCT_CATEGORY ( 'detail', '', ( #27 ) ) ;
#108 = EDGE_LOOP ( 'NONE', ( #133, #160, #120 ) ) ;
#109 = AXIS2_PLACEMENT_3D ( 'NONE', #28, #93, #123 ) ;
#110 = PERSON_AND_ORGANIZATION_ROLE ( 'creator' ) ;
#111 = DATE_AND_TIME ( #114, #4 ) ;
#112 = AXIS2_PLACEMENT_3D ( 'NONE', #78, #140, #185 ) ;
#113 = SECURITY_CLASSIFICATION_LEVEL ( 'unclassified' ) ;
#114 = CALENDAR_DATE ( 2021, 26, 2 ) ;
#115 = VERTEX_POINT ( 'NONE', #125 ) ;
#116 =( GEOMETRIC_REPRESENTATION_CONTEXT ( 3 ) GLOBAL_UNCERTAINTY_ASSIGNED_CONTEXT ( ( #24 ) ) GLOBAL_UNIT_ASSIGNED_CONTEXT ( ( #99, #88, #187 ) ) REPRESENTATION_CONTEXT ( 'NONE', 'WORKASPACE' ) );
#117 = ORIENTED_EDGE ( 'NONE', *, *, #18, .F. ) ;
#118 = COORDINATED_UNIVERSAL_TIME_OFFSET ( 2, 0, .AHEAD. ) ;
#119 = DATE_AND_TIME ( #151, #25 ) ;
#120 = ORIENTED_EDGE ( 'NONE', *, *, #101, .F. ) ;
#121 = CARTESIAN_POINT ( 'NONE',  ( 7.632783294297951215E-14, 0.000000000000000000, 611.4891031072626220 ) ) ;
#122 = DIRECTION ( 'NONE',  ( 1.000000000000000000, 0.000000000000000000, 0.000000000000000000 ) ) ;
#123 = DIRECTION ( 'NONE',  ( 1.000000000000000000, 0.000000000000000000, 0.000000000000000000 ) ) ;
#124 = CC_DESIGN_PERSON_AND_ORGANIZATION_ASSIGNMENT ( #126, #200, ( #149 ) ) ;
#125 = CARTESIAN_POINT ( 'NONE',  ( -38.10000000000000142, 0.000000000000000000, 0.000000000000000000 ) ) ;
#126 = PERSON_AND_ORGANIZATION ( #16, #33 ) ;
#127 = CC_DESIGN_DATE_AND_TIME_ASSIGNMENT ( #1, #173, ( #145 ) ) ;
#128 = APPROVAL_ROLE ( '' ) ;
#129 = AXIS2_PLACEMENT_3D ( 'NONE', #47, #155, #122 ) ;
#130 = EDGE_LOOP ( 'NONE', ( #40, #117 ) ) ;
#131 = EDGE_LOOP ( 'NONE', ( #39, #72, #180, #9 ) ) ;
#132 = DESIGN_CONTEXT ( 'detailed design', #44, 'design' ) ;
#133 = ORIENTED_EDGE ( 'NONE', *, *, #98, .F. ) ;
#134 = EDGE_CURVE ( 'NONE', #115, #178, #135, .T. ) ;
#135 = CIRCLE ( 'NONE', #162, 38.10000000000000142 ) ;
#136 = DIRECTION ( 'NONE',  ( 1.000000000000000000, 1.224646799147353207E-16, 0.000000000000000000 ) ) ;
#137 = LOCAL_TIME ( 8, 17, 55.00000000000000000, #161 ) ;
#138 = DIRECTION ( 'NONE',  ( 1.000000000000000000, 0.000000000000000000, 0.000000000000000000 ) ) ;
#139 = AXIS2_PLACEMENT_3D ( 'NONE', #198, #166, #90 ) ;
#140 = DIRECTION ( 'NONE',  ( 0.000000000000000000, -1.000000000000000000, -0.000000000000000000 ) ) ;
#141 = FACE_OUTER_BOUND ( 'NONE', #130, .T. ) ;
#142 = PERSON_AND_ORGANIZATION ( #16, #33 ) ;
#143 = AXIS2_PLACEMENT_3D ( 'NONE', #195, #92, #183 ) ;
#144 = PERSON_AND_ORGANIZATION_ROLE ( 'design_owner' ) ;
#145 = SECURITY_CLASSIFICATION ( '', '', #113 ) ;
#146 = APPROVAL_DATE_TIME ( #111, #147 ) ;
#147 = APPROVAL ( #86, 'UNSPECIFIED' ) ;
#148 = ORIENTED_EDGE ( 'NONE', *, *, #2, .T. ) ;
#149 = PRODUCT_DEFINITION_FORMATION_WITH_SPECIFIED_SOURCE ( 'ANY', '', #27, .NOT_KNOWN. ) ;
#150 = APPROVAL_PERSON_ORGANIZATION ( #58, #76, #128 ) ;
#151 = CALENDAR_DATE ( 2021, 26, 2 ) ;
#152 = AXIS2_PLACEMENT_3D ( 'NONE', #11, #67, #81 ) ;
#153 = SPHERICAL_SURFACE ( 'NONE', #109, 599.9999999999998863 ) ;
#154 = FACE_OUTER_BOUND ( 'NONE', #108, .T. ) ;
#155 = DIRECTION ( 'NONE',  ( -0.000000000000000000, -0.000000000000000000, -1.000000000000000000 ) ) ;
#156 = APPLICATION_PROTOCOL_DEFINITION ( 'international standard', 'config_control_design', 1994, #74 ) ;
#157 = APPROVAL_ROLE ( '' ) ;
#158 = COORDINATED_UNIVERSAL_TIME_OFFSET ( 2, 0, .AHEAD. ) ;
#159 = CC_DESIGN_PERSON_AND_ORGANIZATION_ASSIGNMENT ( #36, #57, ( #149 ) ) ;
#160 = ORIENTED_EDGE ( 'NONE', *, *, #41, .T. ) ;
#161 = COORDINATED_UNIVERSAL_TIME_OFFSET ( 2, 0, .AHEAD. ) ;
#162 = AXIS2_PLACEMENT_3D ( 'NONE', #48, #80, #184 ) ;
#163 = VERTEX_POINT ( 'NONE', #50 ) ;
#164 = CC_DESIGN_APPROVAL ( #76, ( #165 ) ) ;
#165 = PRODUCT_DEFINITION ( 'UNKNOWN', '', #149, #132 ) ;
#166 = DIRECTION ( 'NONE',  ( -0.000000000000000000, -0.000000000000000000, -1.000000000000000000 ) ) ;
#167 = APPROVAL ( #60, 'UNSPECIFIED' ) ;
#168 = CARTESIAN_POINT ( 'NONE',  ( 0.000000000000000000, 0.000000000000000000, 12.69999999999999929 ) ) ;
#169 = CARTESIAN_POINT ( 'NONE',  ( 38.10000000000000142, 4.665904304751416087E-15, 12.69999999999999929 ) ) ;
#170 = SPHERICAL_SURFACE ( 'NONE', #112, 599.9999999999998863 ) ;
#171 = ADVANCED_FACE ( 'NONE', ( #141 ), #106, .F. ) ;
#172 = CARTESIAN_POINT ( 'NONE',  ( 0.000000000000000000, 0.000000000000000000, 0.000000000000000000 ) ) ;
#173 = DATE_TIME_ROLE ( 'classification_date' ) ;
#174 = CLOSED_SHELL ( 'NONE', ( #26, #94, #37, #171, #61 ) ) ;
#175 = MANIFOLD_SOLID_BREP ( 'Cut-Revolve1', #174 ) ;
#176 = VERTEX_POINT ( 'NONE', #59 ) ;
#177 = CARTESIAN_POINT ( 'NONE',  ( -38.10000000000000142, 0.000000000000000000, 12.69999999999999929 ) ) ;
#178 = VERTEX_POINT ( 'NONE', #188 ) ;
#179 = APPROVAL_DATE_TIME ( #119, #167 ) ;
#180 = ORIENTED_EDGE ( 'NONE', *, *, #194, .T. ) ;
#181 = CC_DESIGN_APPROVAL ( #147, ( #149 ) ) ;
#182 = ORIENTED_EDGE ( 'NONE', *, *, #18, .T. ) ;
#183 = DIRECTION ( 'NONE',  ( 0.000000000000000000, 0.000000000000000000, 1.000000000000000000 ) ) ;
#184 = DIRECTION ( 'NONE',  ( 1.000000000000000000, 0.000000000000000000, 0.000000000000000000 ) ) ;
#185 = DIRECTION ( 'NONE',  ( 1.000000000000000000, 0.000000000000000000, 0.000000000000000000 ) ) ;
#186 = DIRECTION ( 'NONE',  ( -0.000000000000000000, -0.000000000000000000, -1.000000000000000000 ) ) ;
#187 =( NAMED_UNIT ( * ) SI_UNIT ( $, .STERADIAN. ) SOLID_ANGLE_UNIT ( ) );
#188 = CARTESIAN_POINT ( 'NONE',  ( 38.10000000000000142, 4.665904304751416087E-15, 0.000000000000000000 ) ) ;
#189 = PERSON_AND_ORGANIZATION ( #16, #33 ) ;
#190 = APPROVAL_DATE_TIME ( #69, #76 ) ;
#191 = LOCAL_TIME ( 8, 17, 55.00000000000000000, #20 ) ;
#192 = CIRCLE ( 'NONE', #84, 38.10000000000000142 ) ;
#193 = DIRECTION ( 'NONE',  ( 0.000000000000000000, 0.000000000000000000, 1.000000000000000000 ) ) ;
#194 = EDGE_CURVE ( 'NONE', #163, #115, #23, .T. ) ;
#195 = CARTESIAN_POINT ( 'NONE',  ( 7.632783294297951215E-14, 0.000000000000000000, 611.4891031072626220 ) ) ;
#196 = FACE_OUTER_BOUND ( 'NONE', #102, .T. ) ;
#197 = ORIENTED_EDGE ( 'NONE', *, *, #194, .F. ) ;
#198 = CARTESIAN_POINT ( 'NONE',  ( 0.000000000000000000, 0.000000000000000000, 12.69999999999999929 ) ) ;
#199 = CALENDAR_DATE ( 2021, 26, 2 ) ;
#200 = PERSON_AND_ORGANIZATION_ROLE ( 'design_supplier' ) ;
#201 = CC_DESIGN_PERSON_AND_ORGANIZATION_ASSIGNMENT ( #54, #144, ( #27 ) ) ;
ENDSEC;
END-ISO-10303-21;
