ISO-10303-21;
HEADER;
FILE_DESCRIPTION (( 'STEP AP203' ),
    '1' );
FILE_NAME ('010-1712E_UVFS_PCV_window.STEP',
    '2021-02-26T06:17:34',
    ( '' ),
    ( '' ),
    'SwSTEP 2.0',
    'SolidWorks 2019',
    '' );
FILE_SCHEMA (( 'CONFIG_CONTROL_DESIGN' ));
ENDSEC;

DATA;
#1 = VECTOR ( 'NONE', #160, 1000.000000000000000 ) ;
#2 = PERSON_AND_ORGANIZATION_ROLE ( 'classification_officer' ) ;
#3 = DIRECTION ( 'NONE',  ( 0.000000000000000000, 0.000000000000000000, 1.000000000000000000 ) ) ;
#4 = APPROVAL_PERSON_ORGANIZATION ( #149, #100, #62 ) ;
#5 = DIRECTION ( 'NONE',  ( -1.000000000000000000, 0.000000000000000000, 0.000000000000000000 ) ) ;
#6 = EDGE_CURVE ( 'NONE', #56, #123, #38, .T. ) ;
#7 = DIRECTION ( 'NONE',  ( 1.000000000000000000, 0.000000000000000000, 0.000000000000000000 ) ) ;
#8 = DIRECTION ( 'NONE',  ( 1.000000000000000000, 1.224646799147353207E-16, 0.000000000000000000 ) ) ;
#9 = PLANE ( 'NONE',  #31 ) ;
#10 = LOCAL_TIME ( 8, 17, 34.00000000000000000, #193 ) ;
#11 = CLOSED_SHELL ( 'NONE', ( #116, #158, #15, #186, #173 ) ) ;
#12 = ORIENTED_EDGE ( 'NONE', *, *, #6, .T. ) ;
#13 = ORIENTED_EDGE ( 'NONE', *, *, #143, .F. ) ;
#14 = EDGE_CURVE ( 'NONE', #56, #139, #156, .T. ) ;
#15 = ADVANCED_FACE ( 'NONE', ( #66 ), #121, .T. ) ;
#16 = CALENDAR_DATE ( 2021, 26, 2 ) ;
#17 = DATE_AND_TIME ( #199, #10 ) ;
#18 = CC_DESIGN_APPROVAL ( #100, ( #195 ) ) ;
#19 = AXIS2_PLACEMENT_3D ( 'NONE', #176, #148, #61 ) ;
#20 = UNCERTAINTY_MEASURE_WITH_UNIT (LENGTH_MEASURE( 1.000000000000000082E-05 ), #152, 'distance_accuracy_value', 'NONE');
#21 = LINE ( 'NONE', #60, #1 ) ;
#22 = CARTESIAN_POINT ( 'NONE',  ( 0.000000000000000000, 0.000000000000000000, 12.69999999999999929 ) ) ;
#23 = FACE_OUTER_BOUND ( 'NONE', #99, .T. ) ;
#24 = CALENDAR_DATE ( 2021, 26, 2 ) ;
#25 = CARTESIAN_POINT ( 'NONE',  ( -38.10000000000000142, 0.000000000000000000, 12.69999999999999929 ) ) ;
#26 = FACE_OUTER_BOUND ( 'NONE', #40, .T. ) ;
#27 = CIRCLE ( 'NONE', #44, 38.10000000000000142 ) ;
#28 = EDGE_LOOP ( 'NONE', ( #163, #104, #65 ) ) ;
#29 = PERSON_AND_ORGANIZATION ( #97, #107 ) ;
#30 = PERSON_AND_ORGANIZATION ( #97, #107 ) ;
#31 = AXIS2_PLACEMENT_3D ( 'NONE', #81, #162, #101 ) ;
#32 = DIRECTION ( 'NONE',  ( 1.000000000000000000, 0.000000000000000000, 0.000000000000000000 ) ) ;
#33 = MECHANICAL_CONTEXT ( 'NONE', #140, 'mechanical' ) ;
#34 = CARTESIAN_POINT ( 'NONE',  ( 6.245004513516505540E-14, 0.000000000000000000, 12.69999999999998863 ) ) ;
#35 = CC_DESIGN_DATE_AND_TIME_ASSIGNMENT ( #89, #145, ( #55 ) ) ;
#36 = VECTOR ( 'NONE', #52, 1000.000000000000000 ) ;
#37 = CARTESIAN_POINT ( 'NONE',  ( 6.245004513516505540E-14, 0.000000000000000000, 511.2462766885337260 ) ) ;
#38 = LINE ( 'NONE', #25, #36 ) ;
#39 = ORIENTED_EDGE ( 'NONE', *, *, #132, .F. ) ;
#40 = EDGE_LOOP ( 'NONE', ( #13, #181 ) ) ;
#41 = CC_DESIGN_PERSON_AND_ORGANIZATION_ASSIGNMENT ( #29, #70, ( #87 ) ) ;
#42 = APPROVAL_STATUS ( 'not_yet_approved' ) ;
#43 =( GEOMETRIC_REPRESENTATION_CONTEXT ( 3 ) GLOBAL_UNCERTAINTY_ASSIGNED_CONTEXT ( ( #20 ) ) GLOBAL_UNIT_ASSIGNED_CONTEXT ( ( #152, #118, #67 ) ) REPRESENTATION_CONTEXT ( 'NONE', 'WORKASPACE' ) );
#44 = AXIS2_PLACEMENT_3D ( 'NONE', #92, #3, #128 ) ;
#45 = DIRECTION ( 'NONE',  ( -0.000000000000000000, -0.000000000000000000, -1.000000000000000000 ) ) ;
#46 = DATE_AND_TIME ( #24, #147 ) ;
#47 = EDGE_CURVE ( 'NONE', #56, #183, #154, .T. ) ;
#48 = APPLICATION_PROTOCOL_DEFINITION ( 'international standard', 'config_control_design', 1994, #103 ) ;
#49 = LOCAL_TIME ( 8, 17, 34.00000000000000000, #189 ) ;
#50 = CIRCLE ( 'NONE', #19, 500.0000000000000000 ) ;
#51 = COORDINATED_UNIVERSAL_TIME_OFFSET ( 2, 0, .AHEAD. ) ;
#52 = DIRECTION ( 'NONE',  ( -0.000000000000000000, -0.000000000000000000, -1.000000000000000000 ) ) ;
#53 = DIRECTION ( 'NONE',  ( 1.000000000000000000, 0.000000000000000000, 0.000000000000000000 ) ) ;
#54 = ORIENTED_EDGE ( 'NONE', *, *, #143, .T. ) ;
#55 = SECURITY_CLASSIFICATION ( '', '', #184 ) ;
#56 = VERTEX_POINT ( 'NONE', #79 ) ;
#57 = PERSON_AND_ORGANIZATION ( #97, #107 ) ;
#58 = SHAPE_DEFINITION_REPRESENTATION ( #141, #109 ) ;
#59 = AXIS2_PLACEMENT_3D ( 'NONE', #174, #146, #32 ) ;
#60 = CARTESIAN_POINT ( 'NONE',  ( 38.10000000000000142, 4.665904304751416087E-15, 12.69999999999999929 ) ) ;
#61 = DIRECTION ( 'NONE',  ( 0.000000000000000000, 0.000000000000000000, 1.000000000000000000 ) ) ;
#62 = APPROVAL_ROLE ( '' ) ;
#63 = PERSON_AND_ORGANIZATION_ROLE ( 'design_owner' ) ;
#64 = AXIS2_PLACEMENT_3D ( 'NONE', #179, #151, #7 ) ;
#65 = ORIENTED_EDGE ( 'NONE', *, *, #172, .T. ) ;
#66 = FACE_OUTER_BOUND ( 'NONE', #86, .T. ) ;
#67 =( NAMED_UNIT ( * ) SI_UNIT ( $, .STERADIAN. ) SOLID_ANGLE_UNIT ( ) );
#68 = APPROVAL ( #120, 'UNSPECIFIED' ) ;
#69 = EDGE_LOOP ( 'NONE', ( #168, #85, #161, #122 ) ) ;
#70 = PERSON_AND_ORGANIZATION_ROLE ( 'creator' ) ;
#71 = PERSON_AND_ORGANIZATION_ROLE ( 'design_supplier' ) ;
#72 = EDGE_CURVE ( 'NONE', #105, #123, #80, .T. ) ;
#73 = AXIS2_PLACEMENT_3D ( 'NONE', #37, #96, #8 ) ;
#74 = CARTESIAN_POINT ( 'NONE',  ( 9.306621511384889292E-14, 0.000000000000000000, 11.24627668853372953 ) ) ;
#75 = CC_DESIGN_PERSON_AND_ORGANIZATION_ASSIGNMENT ( #57, #71, ( #87 ) ) ;
#76 = DIRECTION ( 'NONE',  ( -0.000000000000000000, -0.000000000000000000, -1.000000000000000000 ) ) ;
#77 = PERSON_AND_ORGANIZATION ( #97, #107 ) ;
#78 = APPROVAL_STATUS ( 'not_yet_approved' ) ;
#79 = CARTESIAN_POINT ( 'NONE',  ( -38.09999999999946851, 0.000000000000000000, 12.69999999999998863 ) ) ;
#80 = CIRCLE ( 'NONE', #64, 38.10000000000000142 ) ;
#81 = CARTESIAN_POINT ( 'NONE',  ( 0.000000000000000000, 0.000000000000000000, 0.000000000000000000 ) ) ;
#82 = ORIENTED_EDGE ( 'NONE', *, *, #126, .T. ) ;
#83 = DIRECTION ( 'NONE',  ( 0.000000000000000000, -1.000000000000000000, -0.000000000000000000 ) ) ;
#84 = PRODUCT_RELATED_PRODUCT_CATEGORY ( 'detail', '', ( #167 ) ) ;
#85 = ORIENTED_EDGE ( 'NONE', *, *, #132, .T. ) ;
#86 = EDGE_LOOP ( 'NONE', ( #39, #82, #12, #54 ) ) ;
#87 = PRODUCT_DEFINITION_FORMATION_WITH_SPECIFIED_SOURCE ( 'ANY', '', #167, .NOT_KNOWN. ) ;
#88 = PERSON_AND_ORGANIZATION ( #97, #107 ) ;
#89 = DATE_AND_TIME ( #127, #170 ) ;
#90 = APPROVAL_PERSON_ORGANIZATION ( #159, #68, #136 ) ;
#91 = AXIS2_PLACEMENT_3D ( 'NONE', #182, #83, #180 ) ;
#92 = CARTESIAN_POINT ( 'NONE',  ( 0.000000000000000000, 0.000000000000000000, 0.000000000000000000 ) ) ;
#93 = DATE_TIME_ROLE ( 'creation_date' ) ;
#94 = FACE_OUTER_BOUND ( 'NONE', #69, .T. ) ;
#95 = DIRECTION ( 'NONE',  ( 0.000000000000000000, 0.000000000000000000, 1.000000000000000000 ) ) ;
#96 = DIRECTION ( 'NONE',  ( 1.224646799147353207E-16, -1.000000000000000000, 0.000000000000000000 ) ) ;
#97 = PERSON ( 'UNSPECIFIED', 'UNSPECIFIED', 'UNSPECIFIED', ('UNSPECIFIED'), ('UNSPECIFIED'), ('UNSPECIFIED') ) ;
#98 = SPHERICAL_SURFACE ( 'NONE', #91, 500.0000000000000000 ) ;
#99 = EDGE_LOOP ( 'NONE', ( #198, #117, #196 ) ) ;
#100 = APPROVAL ( #78, 'UNSPECIFIED' ) ;
#101 = DIRECTION ( 'NONE',  ( 1.000000000000000000, 0.000000000000000000, -0.000000000000000000 ) ) ;
#102 = MANIFOLD_SOLID_BREP ( 'Cut-Revolve1', #11 ) ;
#103 = APPLICATION_CONTEXT ( 'configuration controlled 3d designs of mechanical parts and assemblies' ) ;
#104 = ORIENTED_EDGE ( 'NONE', *, *, #126, .F. ) ;
#105 = VERTEX_POINT ( 'NONE', #192 ) ;
#106 = APPROVAL_ROLE ( '' ) ;
#107 = ORGANIZATION ( 'UNSPECIFIED', 'UNSPECIFIED', '' ) ;
#108 = CC_DESIGN_DATE_AND_TIME_ASSIGNMENT ( #46, #93, ( #195 ) ) ;
#109 = ADVANCED_BREP_SHAPE_REPRESENTATION ( '010-1712E_UVFS_PCV_window', ( #102, #115 ), #43 ) ;
#110 = DESIGN_CONTEXT ( 'detailed design', #103, 'design' ) ;
#111 = SPHERICAL_SURFACE ( 'NONE', #59, 500.0000000000000000 ) ;
#112 = DIRECTION ( 'NONE',  ( 1.000000000000000000, 0.000000000000000000, 0.000000000000000000 ) ) ;
#113 = DIRECTION ( 'NONE',  ( 1.000000000000000000, 0.000000000000000000, 0.000000000000000000 ) ) ;
#114 = CALENDAR_DATE ( 2021, 26, 2 ) ;
#115 = AXIS2_PLACEMENT_3D ( 'NONE', #188, #95, #112 ) ;
#116 = ADVANCED_FACE ( 'NONE', ( #23 ), #111, .F. ) ;
#117 = ORIENTED_EDGE ( 'NONE', *, *, #14, .T. ) ;
#118 =( NAMED_UNIT ( * ) PLANE_ANGLE_UNIT ( ) SI_UNIT ( $, .RADIAN. ) );
#119 = CARTESIAN_POINT ( 'NONE',  ( 6.245004513516505540E-14, 0.000000000000000000, 12.69999999999998863 ) ) ;
#120 = APPROVAL_STATUS ( 'not_yet_approved' ) ;
#121 = CYLINDRICAL_SURFACE ( 'NONE', #171, 38.10000000000000142 ) ;
#122 = ORIENTED_EDGE ( 'NONE', *, *, #6, .F. ) ;
#123 = VERTEX_POINT ( 'NONE', #187 ) ;
#124 = APPROVAL_DATE_TIME ( #17, #68 ) ;
#125 = APPROVAL ( #42, 'UNSPECIFIED' ) ;
#126 = EDGE_CURVE ( 'NONE', #183, #56, #178, .T. ) ;
#127 = CALENDAR_DATE ( 2021, 26, 2 ) ;
#128 = DIRECTION ( 'NONE',  ( 1.000000000000000000, 0.000000000000000000, 0.000000000000000000 ) ) ;
#129 = FACE_OUTER_BOUND ( 'NONE', #28, .T. ) ;
#130 = CC_DESIGN_PERSON_AND_ORGANIZATION_ASSIGNMENT ( #88, #2, ( #55 ) ) ;
#131 = APPLICATION_PROTOCOL_DEFINITION ( 'international standard', 'config_control_design', 1994, #140 ) ;
#132 = EDGE_CURVE ( 'NONE', #183, #105, #21, .T. ) ;
#133 = PERSON_AND_ORGANIZATION_ROLE ( 'creator' ) ;
#134 = CC_DESIGN_SECURITY_CLASSIFICATION ( #55, ( #87 ) ) ;
#135 = DIRECTION ( 'NONE',  ( -0.000000000000000000, -0.000000000000000000, -1.000000000000000000 ) ) ;
#136 = APPROVAL_ROLE ( '' ) ;
#137 = DIRECTION ( 'NONE',  ( -1.000000000000000000, 0.000000000000000000, 0.000000000000000000 ) ) ;
#138 = LOCAL_TIME ( 8, 17, 34.00000000000000000, #155 ) ;
#139 = VERTEX_POINT ( 'NONE', #74 ) ;
#140 = APPLICATION_CONTEXT ( 'configuration controlled 3d designs of mechanical parts and assemblies' ) ;
#141 = PRODUCT_DEFINITION_SHAPE ( 'NONE', 'NONE',  #195 ) ;
#142 = CC_DESIGN_APPROVAL ( #68, ( #87 ) ) ;
#143 = EDGE_CURVE ( 'NONE', #123, #105, #27, .T. ) ;
#144 = DATE_AND_TIME ( #16, #138 ) ;
#145 = DATE_TIME_ROLE ( 'classification_date' ) ;
#146 = DIRECTION ( 'NONE',  ( 0.000000000000000000, -1.000000000000000000, -0.000000000000000000 ) ) ;
#147 = LOCAL_TIME ( 8, 17, 34.00000000000000000, #51 ) ;
#148 = DIRECTION ( 'NONE',  ( 0.000000000000000000, 1.000000000000000000, -0.000000000000000000 ) ) ;
#149 = PERSON_AND_ORGANIZATION ( #97, #107 ) ;
#150 = DATE_AND_TIME ( #114, #49 ) ;
#151 = DIRECTION ( 'NONE',  ( 0.000000000000000000, 0.000000000000000000, 1.000000000000000000 ) ) ;
#152 =( LENGTH_UNIT ( ) NAMED_UNIT ( * ) SI_UNIT ( .MILLI., .METRE. ) );
#153 = CARTESIAN_POINT ( 'NONE',  ( 0.000000000000000000, 0.000000000000000000, 12.69999999999999929 ) ) ;
#154 = CIRCLE ( 'NONE', #166, 38.09999999999953246 ) ;
#155 = COORDINATED_UNIVERSAL_TIME_OFFSET ( 2, 0, .AHEAD. ) ;
#156 = CIRCLE ( 'NONE', #73, 500.0000000000000000 ) ;
#157 = CYLINDRICAL_SURFACE ( 'NONE', #190, 38.10000000000000142 ) ;
#158 = ADVANCED_FACE ( 'NONE', ( #94 ), #157, .T. ) ;
#159 = PERSON_AND_ORGANIZATION ( #97, #107 ) ;
#160 = DIRECTION ( 'NONE',  ( -0.000000000000000000, -0.000000000000000000, -1.000000000000000000 ) ) ;
#161 = ORIENTED_EDGE ( 'NONE', *, *, #72, .T. ) ;
#162 = DIRECTION ( 'NONE',  ( 0.000000000000000000, 0.000000000000000000, 1.000000000000000000 ) ) ;
#163 = ORIENTED_EDGE ( 'NONE', *, *, #14, .F. ) ;
#164 = CC_DESIGN_PERSON_AND_ORGANIZATION_ASSIGNMENT ( #77, #63, ( #167 ) ) ;
#165 = APPROVAL_PERSON_ORGANIZATION ( #30, #125, #106 ) ;
#166 = AXIS2_PLACEMENT_3D ( 'NONE', #119, #194, #53 ) ;
#167 = PRODUCT ( '010-1712E_UVFS_PCV_window', '010-1712E_UVFS_PCV_window', '', ( #33 ) ) ;
#168 = ORIENTED_EDGE ( 'NONE', *, *, #47, .T. ) ;
#169 = COORDINATED_UNIVERSAL_TIME_OFFSET ( 2, 0, .AHEAD. ) ;
#170 = LOCAL_TIME ( 8, 17, 34.00000000000000000, #169 ) ;
#171 = AXIS2_PLACEMENT_3D ( 'NONE', #153, #135, #137 ) ;
#172 = EDGE_CURVE ( 'NONE', #183, #139, #50, .T. ) ;
#173 = ADVANCED_FACE ( 'NONE', ( #129 ), #98, .F. ) ;
#174 = CARTESIAN_POINT ( 'NONE',  ( 6.245004513516505540E-14, 0.000000000000000000, 511.2462766885337260 ) ) ;
#175 = PERSON_AND_ORGANIZATION ( #97, #107 ) ;
#176 = CARTESIAN_POINT ( 'NONE',  ( 6.245004513516505540E-14, 0.000000000000000000, 511.2462766885337260 ) ) ;
#177 = APPROVAL_DATE_TIME ( #150, #100 ) ;
#178 = CIRCLE ( 'NONE', #197, 38.09999999999953246 ) ;
#179 = CARTESIAN_POINT ( 'NONE',  ( 0.000000000000000000, 0.000000000000000000, 0.000000000000000000 ) ) ;
#180 = DIRECTION ( 'NONE',  ( 1.000000000000000000, 0.000000000000000000, 0.000000000000000000 ) ) ;
#181 = ORIENTED_EDGE ( 'NONE', *, *, #72, .F. ) ;
#182 = CARTESIAN_POINT ( 'NONE',  ( 6.245004513516505540E-14, 0.000000000000000000, 511.2462766885337260 ) ) ;
#183 = VERTEX_POINT ( 'NONE', #191 ) ;
#184 = SECURITY_CLASSIFICATION_LEVEL ( 'unclassified' ) ;
#185 = CC_DESIGN_APPROVAL ( #125, ( #55 ) ) ;
#186 = ADVANCED_FACE ( 'NONE', ( #26 ), #9, .F. ) ;
#187 = CARTESIAN_POINT ( 'NONE',  ( -38.10000000000000142, 0.000000000000000000, 0.000000000000000000 ) ) ;
#188 = CARTESIAN_POINT ( 'NONE',  ( 0.000000000000000000, 0.000000000000000000, 0.000000000000000000 ) ) ;
#189 = COORDINATED_UNIVERSAL_TIME_OFFSET ( 2, 0, .AHEAD. ) ;
#190 = AXIS2_PLACEMENT_3D ( 'NONE', #22, #76, #5 ) ;
#191 = CARTESIAN_POINT ( 'NONE',  ( 38.09999999999958931, 4.665904304751390843E-15, 12.69999999999998863 ) ) ;
#192 = CARTESIAN_POINT ( 'NONE',  ( 38.10000000000000142, 4.665904304751416087E-15, 0.000000000000000000 ) ) ;
#193 = COORDINATED_UNIVERSAL_TIME_OFFSET ( 2, 0, .AHEAD. ) ;
#194 = DIRECTION ( 'NONE',  ( -0.000000000000000000, -0.000000000000000000, -1.000000000000000000 ) ) ;
#195 = PRODUCT_DEFINITION ( 'UNKNOWN', '', #87, #110 ) ;
#196 = ORIENTED_EDGE ( 'NONE', *, *, #172, .F. ) ;
#197 = AXIS2_PLACEMENT_3D ( 'NONE', #34, #45, #113 ) ;
#198 = ORIENTED_EDGE ( 'NONE', *, *, #47, .F. ) ;
#199 = CALENDAR_DATE ( 2021, 26, 2 ) ;
#200 = APPROVAL_DATE_TIME ( #144, #125 ) ;
#201 = CC_DESIGN_PERSON_AND_ORGANIZATION_ASSIGNMENT ( #175, #133, ( #195 ) ) ;
ENDSEC;
END-ISO-10303-21;
