ISO-10303-21;
HEADER;
FILE_DESCRIPTION (( 'STEP AP203' ),
    '1' );
FILE_NAME ('010-1708E_UVFS_PCV_window.STEP',
    '2021-02-26T06:16:54',
    ( '' ),
    ( '' ),
    'SwSTEP 2.0',
    'SolidWorks 2019',
    '' );
FILE_SCHEMA (( 'CONFIG_CONTROL_DESIGN' ));
ENDSEC;

DATA;
#1 = CIRCLE ( 'NONE', #18, 38.10000000000000142 ) ;
#2 = ORIENTED_EDGE ( 'NONE', *, *, #147, .T. ) ;
#3 = DESIGN_CONTEXT ( 'detailed design', #70, 'design' ) ;
#4 = LOCAL_TIME ( 8, 16, 54.00000000000000000, #19 ) ;
#5 = APPROVAL_DATE_TIME ( #135, #58 ) ;
#6 = AXIS2_PLACEMENT_3D ( 'NONE', #61, #180, #112 ) ;
#7 = ORIENTED_EDGE ( 'NONE', *, *, #14, .F. ) ;
#8 = CARTESIAN_POINT ( 'NONE',  ( -38.09999999999967457, 0.000000000000000000, 12.69999999999998863 ) ) ;
#9 = ORIENTED_EDGE ( 'NONE', *, *, #140, .F. ) ;
#10 = CIRCLE ( 'NONE', #40, 38.10000000000000142 ) ;
#11 = DIRECTION ( 'NONE',  ( 1.000000000000000000, 0.000000000000000000, 0.000000000000000000 ) ) ;
#12 = ORIENTED_EDGE ( 'NONE', *, *, #146, .T. ) ;
#13 = DIRECTION ( 'NONE',  ( -1.000000000000000000, 0.000000000000000000, 0.000000000000000000 ) ) ;
#14 = EDGE_CURVE ( 'NONE', #170, #51, #38, .T. ) ;
#15 = COORDINATED_UNIVERSAL_TIME_OFFSET ( 2, 0, .AHEAD. ) ;
#16 = CARTESIAN_POINT ( 'NONE',  ( 0.000000000000000000, 0.000000000000000000, 12.69999999999999929 ) ) ;
#17 = PERSON_AND_ORGANIZATION ( #102, #29 ) ;
#18 = AXIS2_PLACEMENT_3D ( 'NONE', #94, #183, #196 ) ;
#19 = COORDINATED_UNIVERSAL_TIME_OFFSET ( 2, 0, .AHEAD. ) ;
#20 = VERTEX_POINT ( 'NONE', #114 ) ;
#21 = APPROVAL ( #153, 'UNSPECIFIED' ) ;
#22 = LOCAL_TIME ( 8, 16, 54.00000000000000000, #69 ) ;
#23 = UNCERTAINTY_MEASURE_WITH_UNIT (LENGTH_MEASURE( 1.000000000000000082E-05 ), #156, 'distance_accuracy_value', 'NONE');
#24 = PRODUCT ( '010-1708E_UVFS_PCV_window', '010-1708E_UVFS_PCV_window', '', ( #118 ) ) ;
#25 = ORIENTED_EDGE ( 'NONE', *, *, #99, .T. ) ;
#26 = CARTESIAN_POINT ( 'NONE',  ( 3.469446951953614189E-14, 0.000000000000000000, 310.2708151012124631 ) ) ;
#27 = ADVANCED_FACE ( 'NONE', ( #185 ), #28, .F. ) ;
#28 = SPHERICAL_SURFACE ( 'NONE', #132, 299.9999999999999432 ) ;
#29 = ORGANIZATION ( 'UNSPECIFIED', 'UNSPECIFIED', '' ) ;
#30 = CARTESIAN_POINT ( 'NONE',  ( -38.10000000000000142, 0.000000000000000000, 0.000000000000000000 ) ) ;
#31 = CARTESIAN_POINT ( 'NONE',  ( 3.469446951953614189E-14, 0.000000000000000000, 310.2708151012124631 ) ) ;
#32 = APPROVAL_DATE_TIME ( #130, #55 ) ;
#33 = APPROVAL_STATUS ( 'not_yet_approved' ) ;
#34 = CALENDAR_DATE ( 2021, 26, 2 ) ;
#35 = EDGE_LOOP ( 'NONE', ( #177, #161 ) ) ;
#36 = AXIS2_PLACEMENT_3D ( 'NONE', #122, #182, #42 ) ;
#37 = CALENDAR_DATE ( 2021, 26, 2 ) ;
#38 = CIRCLE ( 'NONE', #88, 38.09999999999971010 ) ;
#39 = CC_DESIGN_PERSON_AND_ORGANIZATION_ASSIGNMENT ( #129, #173, ( #49 ) ) ;
#40 = AXIS2_PLACEMENT_3D ( 'NONE', #95, #186, #80 ) ;
#41 = DIRECTION ( 'NONE',  ( 1.224646799147353207E-16, -1.000000000000000000, 0.000000000000000000 ) ) ;
#42 = DIRECTION ( 'NONE',  ( 1.000000000000000000, 0.000000000000000000, -0.000000000000000000 ) ) ;
#43 = EDGE_CURVE ( 'NONE', #170, #75, #44, .T. ) ;
#44 = LINE ( 'NONE', #195, #96 ) ;
#45 = CC_DESIGN_APPROVAL ( #58, ( #144 ) ) ;
#46 = FACE_OUTER_BOUND ( 'NONE', #78, .T. ) ;
#47 = ORIENTED_EDGE ( 'NONE', *, *, #14, .T. ) ;
#48 = DIRECTION ( 'NONE',  ( -0.000000000000000000, -0.000000000000000000, -1.000000000000000000 ) ) ;
#49 = PRODUCT_DEFINITION_FORMATION_WITH_SPECIFIED_SOURCE ( 'ANY', '', #24, .NOT_KNOWN. ) ;
#50 = PERSON_AND_ORGANIZATION_ROLE ( 'design_supplier' ) ;
#51 = VERTEX_POINT ( 'NONE', #121 ) ;
#52 = CARTESIAN_POINT ( 'NONE',  ( 0.000000000000000000, 0.000000000000000000, 12.69999999999999929 ) ) ;
#53 = PERSON_AND_ORGANIZATION ( #102, #29 ) ;
#54 = APPROVAL_ROLE ( '' ) ;
#55 = APPROVAL ( #33, 'UNSPECIFIED' ) ;
#56 = CC_DESIGN_APPROVAL ( #55, ( #169 ) ) ;
#57 = DIRECTION ( 'NONE',  ( -0.000000000000000000, -0.000000000000000000, -1.000000000000000000 ) ) ;
#58 = APPROVAL ( #71, 'UNSPECIFIED' ) ;
#59 = PLANE ( 'NONE',  #36 ) ;
#60 = APPLICATION_CONTEXT ( 'configuration controlled 3d designs of mechanical parts and assemblies' ) ;
#61 = CARTESIAN_POINT ( 'NONE',  ( 3.469446951953614189E-14, 0.000000000000000000, 310.2708151012124631 ) ) ;
#62 = EDGE_LOOP ( 'NONE', ( #123, #2, #176, #73 ) ) ;
#63 = SPHERICAL_SURFACE ( 'NONE', #91, 299.9999999999999432 ) ;
#64 = APPLICATION_PROTOCOL_DEFINITION ( 'international standard', 'config_control_design', 1994, #70 ) ;
#65 = DATE_AND_TIME ( #82, #200 ) ;
#66 = DIRECTION ( 'NONE',  ( -1.000000000000000000, 0.000000000000000000, 0.000000000000000000 ) ) ;
#67 = ADVANCED_FACE ( 'NONE', ( #46 ), #63, .F. ) ;
#68 = PERSON_AND_ORGANIZATION ( #102, #29 ) ;
#69 = COORDINATED_UNIVERSAL_TIME_OFFSET ( 2, 0, .AHEAD. ) ;
#70 = APPLICATION_CONTEXT ( 'configuration controlled 3d designs of mechanical parts and assemblies' ) ;
#71 = APPROVAL_STATUS ( 'not_yet_approved' ) ;
#72 = SHAPE_DEFINITION_REPRESENTATION ( #89, #109 ) ;
#73 = ORIENTED_EDGE ( 'NONE', *, *, #93, .T. ) ;
#74 = CC_DESIGN_PERSON_AND_ORGANIZATION_ASSIGNMENT ( #68, #175, ( #24 ) ) ;
#75 = VERTEX_POINT ( 'NONE', #30 ) ;
#76 = CIRCLE ( 'NONE', #6, 299.9999999999999432 ) ;
#77 = ORIENTED_EDGE ( 'NONE', *, *, #147, .F. ) ;
#78 = EDGE_LOOP ( 'NONE', ( #9, #77, #12 ) ) ;
#79 = CC_DESIGN_PERSON_AND_ORGANIZATION_ASSIGNMENT ( #117, #119, ( #169 ) ) ;
#80 = DIRECTION ( 'NONE',  ( 1.000000000000000000, 0.000000000000000000, 0.000000000000000000 ) ) ;
#81 = DIRECTION ( 'NONE',  ( 1.000000000000000000, 0.000000000000000000, 0.000000000000000000 ) ) ;
#82 = CALENDAR_DATE ( 2021, 26, 2 ) ;
#83 = PERSON_AND_ORGANIZATION_ROLE ( 'classification_officer' ) ;
#84 = DATE_AND_TIME ( #37, #139 ) ;
#85 = ORIENTED_EDGE ( 'NONE', *, *, #140, .T. ) ;
#86 = AXIS2_PLACEMENT_3D ( 'NONE', #143, #187, #81 ) ;
#87 = COORDINATED_UNIVERSAL_TIME_OFFSET ( 2, 0, .AHEAD. ) ;
#88 = AXIS2_PLACEMENT_3D ( 'NONE', #151, #150, #11 ) ;
#89 = PRODUCT_DEFINITION_SHAPE ( 'NONE', 'NONE',  #169 ) ;
#90 = CARTESIAN_POINT ( 'NONE',  ( 3.469446951953614189E-14, 0.000000000000000000, 12.69999999999998863 ) ) ;
#91 = AXIS2_PLACEMENT_3D ( 'NONE', #127, #113, #164 ) ;
#92 = DIRECTION ( 'NONE',  ( 1.000000000000000000, 0.000000000000000000, 0.000000000000000000 ) ) ;
#93 = EDGE_CURVE ( 'NONE', #75, #20, #1, .T. ) ;
#94 = CARTESIAN_POINT ( 'NONE',  ( 0.000000000000000000, 0.000000000000000000, 0.000000000000000000 ) ) ;
#95 = CARTESIAN_POINT ( 'NONE',  ( 0.000000000000000000, 0.000000000000000000, 0.000000000000000000 ) ) ;
#96 = VECTOR ( 'NONE', #137, 1000.000000000000000 ) ;
#97 = DIRECTION ( 'NONE',  ( -0.000000000000000000, -0.000000000000000000, -1.000000000000000000 ) ) ;
#98 = AXIS2_PLACEMENT_3D ( 'NONE', #16, #115, #66 ) ;
#99 = EDGE_CURVE ( 'NONE', #20, #75, #10, .T. ) ;
#100 = PERSON_AND_ORGANIZATION ( #102, #29 ) ;
#101 = SECURITY_CLASSIFICATION_LEVEL ( 'unclassified' ) ;
#102 = PERSON ( 'UNSPECIFIED', 'UNSPECIFIED', 'UNSPECIFIED', ('UNSPECIFIED'), ('UNSPECIFIED'), ('UNSPECIFIED') ) ;
#103 = ORIENTED_EDGE ( 'NONE', *, *, #108, .T. ) ;
#104 = CC_DESIGN_PERSON_AND_ORGANIZATION_ASSIGNMENT ( #17, #83, ( #144 ) ) ;
#105 = PERSON_AND_ORGANIZATION ( #102, #29 ) ;
#106 = AXIS2_PLACEMENT_3D ( 'NONE', #31, #41, #110 ) ;
#107 = VECTOR ( 'NONE', #57, 1000.000000000000000 ) ;
#108 = EDGE_CURVE ( 'NONE', #51, #20, #142, .T. ) ;
#109 = ADVANCED_BREP_SHAPE_REPRESENTATION ( '010-1708E_UVFS_PCV_window', ( #149, #86 ), #172 ) ;
#110 = DIRECTION ( 'NONE',  ( 1.000000000000000000, 1.224646799147353207E-16, 0.000000000000000000 ) ) ;
#111 = ORIENTED_EDGE ( 'NONE', *, *, #146, .F. ) ;
#112 = DIRECTION ( 'NONE',  ( 0.000000000000000000, 0.000000000000000000, 1.000000000000000000 ) ) ;
#113 = DIRECTION ( 'NONE',  ( 0.000000000000000000, -1.000000000000000000, -0.000000000000000000 ) ) ;
#114 = CARTESIAN_POINT ( 'NONE',  ( 38.10000000000000142, 4.665904304751416087E-15, 0.000000000000000000 ) ) ;
#115 = DIRECTION ( 'NONE',  ( -0.000000000000000000, -0.000000000000000000, -1.000000000000000000 ) ) ;
#116 = APPROVAL_PERSON_ORGANIZATION ( #105, #55, #157 ) ;
#117 = PERSON_AND_ORGANIZATION ( #102, #29 ) ;
#118 = MECHANICAL_CONTEXT ( 'NONE', #60, 'mechanical' ) ;
#119 = PERSON_AND_ORGANIZATION_ROLE ( 'creator' ) ;
#120 = CC_DESIGN_APPROVAL ( #21, ( #49 ) ) ;
#121 = CARTESIAN_POINT ( 'NONE',  ( 38.09999999999974563, 4.665904304751401098E-15, 12.69999999999998863 ) ) ;
#122 = CARTESIAN_POINT ( 'NONE',  ( 0.000000000000000000, 0.000000000000000000, 0.000000000000000000 ) ) ;
#123 = ORIENTED_EDGE ( 'NONE', *, *, #108, .F. ) ;
#124 = CLOSED_SHELL ( 'NONE', ( #27, #184, #193, #179, #67 ) ) ;
#125 = EDGE_LOOP ( 'NONE', ( #7, #85, #111 ) ) ;
#126 = AXIS2_PLACEMENT_3D ( 'NONE', #90, #97, #92 ) ;
#127 = CARTESIAN_POINT ( 'NONE',  ( 3.469446951953614189E-14, 0.000000000000000000, 310.2708151012124631 ) ) ;
#128 = APPROVAL_ROLE ( '' ) ;
#129 = PERSON_AND_ORGANIZATION ( #102, #29 ) ;
#130 = DATE_AND_TIME ( #34, #22 ) ;
#131 = CIRCLE ( 'NONE', #106, 299.9999999999999432 ) ;
#132 = AXIS2_PLACEMENT_3D ( 'NONE', #26, #141, #194 ) ;
#133 = COORDINATED_UNIVERSAL_TIME_OFFSET ( 2, 0, .AHEAD. ) ;
#134 = CALENDAR_DATE ( 2021, 26, 2 ) ;
#135 = DATE_AND_TIME ( #192, #4 ) ;
#136 = CC_DESIGN_PERSON_AND_ORGANIZATION_ASSIGNMENT ( #100, #50, ( #49 ) ) ;
#137 = DIRECTION ( 'NONE',  ( -0.000000000000000000, -0.000000000000000000, -1.000000000000000000 ) ) ;
#138 = FACE_OUTER_BOUND ( 'NONE', #35, .T. ) ;
#139 = LOCAL_TIME ( 8, 16, 54.00000000000000000, #133 ) ;
#140 = EDGE_CURVE ( 'NONE', #170, #152, #131, .T. ) ;
#141 = DIRECTION ( 'NONE',  ( 0.000000000000000000, -1.000000000000000000, -0.000000000000000000 ) ) ;
#142 = LINE ( 'NONE', #197, #107 ) ;
#143 = CARTESIAN_POINT ( 'NONE',  ( 0.000000000000000000, 0.000000000000000000, 0.000000000000000000 ) ) ;
#144 = SECURITY_CLASSIFICATION ( '', '', #101 ) ;
#145 = CYLINDRICAL_SURFACE ( 'NONE', #181, 38.10000000000000142 ) ;
#146 = EDGE_CURVE ( 'NONE', #51, #152, #76, .T. ) ;
#147 = EDGE_CURVE ( 'NONE', #51, #170, #154, .T. ) ;
#148 = CARTESIAN_POINT ( 'NONE',  ( 5.306417150674643935E-14, 0.000000000000000000, 10.27081510121252705 ) ) ;
#149 = MANIFOLD_SOLID_BREP ( 'Cut-Revolve1', #124 ) ;
#150 = DIRECTION ( 'NONE',  ( -0.000000000000000000, -0.000000000000000000, -1.000000000000000000 ) ) ;
#151 = CARTESIAN_POINT ( 'NONE',  ( 3.469446951953614189E-14, 0.000000000000000000, 12.69999999999998863 ) ) ;
#152 = VERTEX_POINT ( 'NONE', #148 ) ;
#153 = APPROVAL_STATUS ( 'not_yet_approved' ) ;
#154 = CIRCLE ( 'NONE', #126, 38.09999999999971010 ) ;
#155 = DATE_TIME_ROLE ( 'creation_date' ) ;
#156 =( LENGTH_UNIT ( ) NAMED_UNIT ( * ) SI_UNIT ( .MILLI., .METRE. ) );
#157 = APPROVAL_ROLE ( '' ) ;
#158 = CC_DESIGN_SECURITY_CLASSIFICATION ( #144, ( #49 ) ) ;
#159 = DATE_TIME_ROLE ( 'classification_date' ) ;
#160 = PRODUCT_RELATED_PRODUCT_CATEGORY ( 'detail', '', ( #24 ) ) ;
#161 = ORIENTED_EDGE ( 'NONE', *, *, #99, .F. ) ;
#162 = APPROVAL_PERSON_ORGANIZATION ( #53, #58, #54 ) ;
#163 = APPROVAL_PERSON_ORGANIZATION ( #188, #21, #128 ) ;
#164 = DIRECTION ( 'NONE',  ( 1.000000000000000000, 0.000000000000000000, 0.000000000000000000 ) ) ;
#165 = CC_DESIGN_DATE_AND_TIME_ASSIGNMENT ( #84, #155, ( #169 ) ) ;
#166 = ORIENTED_EDGE ( 'NONE', *, *, #43, .F. ) ;
#167 = EDGE_LOOP ( 'NONE', ( #47, #103, #25, #166 ) ) ;
#168 = LOCAL_TIME ( 8, 16, 54.00000000000000000, #87 ) ;
#169 = PRODUCT_DEFINITION ( 'UNKNOWN', '', #49, #3 ) ;
#170 = VERTEX_POINT ( 'NONE', #8 ) ;
#171 = FACE_OUTER_BOUND ( 'NONE', #62, .T. ) ;
#172 =( GEOMETRIC_REPRESENTATION_CONTEXT ( 3 ) GLOBAL_UNCERTAINTY_ASSIGNED_CONTEXT ( ( #23 ) ) GLOBAL_UNIT_ASSIGNED_CONTEXT ( ( #156, #201, #199 ) ) REPRESENTATION_CONTEXT ( 'NONE', 'WORKASPACE' ) );
#173 = PERSON_AND_ORGANIZATION_ROLE ( 'creator' ) ;
#174 = APPROVAL_DATE_TIME ( #65, #21 ) ;
#175 = PERSON_AND_ORGANIZATION_ROLE ( 'design_owner' ) ;
#176 = ORIENTED_EDGE ( 'NONE', *, *, #43, .T. ) ;
#177 = ORIENTED_EDGE ( 'NONE', *, *, #93, .F. ) ;
#178 = DATE_AND_TIME ( #134, #168 ) ;
#179 = ADVANCED_FACE ( 'NONE', ( #138 ), #59, .F. ) ;
#180 = DIRECTION ( 'NONE',  ( 0.000000000000000000, 1.000000000000000000, -0.000000000000000000 ) ) ;
#181 = AXIS2_PLACEMENT_3D ( 'NONE', #52, #48, #13 ) ;
#182 = DIRECTION ( 'NONE',  ( 0.000000000000000000, 0.000000000000000000, 1.000000000000000000 ) ) ;
#183 = DIRECTION ( 'NONE',  ( 0.000000000000000000, 0.000000000000000000, 1.000000000000000000 ) ) ;
#184 = ADVANCED_FACE ( 'NONE', ( #189 ), #191, .T. ) ;
#185 = FACE_OUTER_BOUND ( 'NONE', #125, .T. ) ;
#186 = DIRECTION ( 'NONE',  ( 0.000000000000000000, 0.000000000000000000, 1.000000000000000000 ) ) ;
#187 = DIRECTION ( 'NONE',  ( 0.000000000000000000, 0.000000000000000000, 1.000000000000000000 ) ) ;
#188 = PERSON_AND_ORGANIZATION ( #102, #29 ) ;
#189 = FACE_OUTER_BOUND ( 'NONE', #167, .T. ) ;
#190 = CC_DESIGN_DATE_AND_TIME_ASSIGNMENT ( #178, #159, ( #144 ) ) ;
#191 = CYLINDRICAL_SURFACE ( 'NONE', #98, 38.10000000000000142 ) ;
#192 = CALENDAR_DATE ( 2021, 26, 2 ) ;
#193 = ADVANCED_FACE ( 'NONE', ( #171 ), #145, .T. ) ;
#194 = DIRECTION ( 'NONE',  ( 1.000000000000000000, 0.000000000000000000, 0.000000000000000000 ) ) ;
#195 = CARTESIAN_POINT ( 'NONE',  ( -38.10000000000000142, 0.000000000000000000, 12.69999999999999929 ) ) ;
#196 = DIRECTION ( 'NONE',  ( 1.000000000000000000, 0.000000000000000000, 0.000000000000000000 ) ) ;
#197 = CARTESIAN_POINT ( 'NONE',  ( 38.10000000000000142, 4.665904304751416087E-15, 12.69999999999999929 ) ) ;
#198 = APPLICATION_PROTOCOL_DEFINITION ( 'international standard', 'config_control_design', 1994, #60 ) ;
#199 =( NAMED_UNIT ( * ) SI_UNIT ( $, .STERADIAN. ) SOLID_ANGLE_UNIT ( ) );
#200 = LOCAL_TIME ( 8, 16, 54.00000000000000000, #15 ) ;
#201 =( NAMED_UNIT ( * ) PLANE_ANGLE_UNIT ( ) SI_UNIT ( $, .RADIAN. ) );
ENDSEC;
END-ISO-10303-21;
