ISO-10303-21;
HEADER;
FILE_DESCRIPTION (( 'STEP AP203' ),
    '1' );
FILE_NAME ('010-1705E_UVFS_PCV_window.STEP',
    '2021-02-26T06:16:34',
    ( '' ),
    ( '' ),
    'SwSTEP 2.0',
    'SolidWorks 2019',
    '' );
FILE_SCHEMA (( 'CONFIG_CONTROL_DESIGN' ));
ENDSEC;

DATA;
#1 = VECTOR ( 'NONE', #139, 1000.000000000000000 ) ;
#2 = PERSON_AND_ORGANIZATION ( #72, #161 ) ;
#3 = AXIS2_PLACEMENT_3D ( 'NONE', #152, #59, #17 ) ;
#4 = DATE_AND_TIME ( #67, #143 ) ;
#5 = APPROVAL_STATUS ( 'not_yet_approved' ) ;
#6 = PERSON_AND_ORGANIZATION_ROLE ( 'classification_officer' ) ;
#7 = DESIGN_CONTEXT ( 'detailed design', #101, 'design' ) ;
#8 = AXIS2_PLACEMENT_3D ( 'NONE', #137, #77, #75 ) ;
#9 = ADVANCED_BREP_SHAPE_REPRESENTATION ( '010-1705E_UVFS_PCV_window', ( #28, #36 ), #64 ) ;
#10 = EDGE_LOOP ( 'NONE', ( #146, #55 ) ) ;
#11 = EDGE_LOOP ( 'NONE', ( #195, #70, #194 ) ) ;
#12 = CC_DESIGN_SECURITY_CLASSIFICATION ( #81, ( #190 ) ) ;
#13 = ORIENTED_EDGE ( 'NONE', *, *, #100, .T. ) ;
#14 = CARTESIAN_POINT ( 'NONE',  ( 3.306314970319521257E-14, 0.000000000000000000, 9.037439119491425643 ) ) ;
#15 = DIRECTION ( 'NONE',  ( -0.000000000000000000, -0.000000000000000000, -1.000000000000000000 ) ) ;
#16 = CIRCLE ( 'NONE', #121, 38.10000000000000142 ) ;
#17 = DIRECTION ( 'NONE',  ( -1.000000000000000000, 0.000000000000000000, 0.000000000000000000 ) ) ;
#18 = DIRECTION ( 'NONE',  ( 1.000000000000000000, 0.000000000000000000, 0.000000000000000000 ) ) ;
#19 =( LENGTH_UNIT ( ) NAMED_UNIT ( * ) SI_UNIT ( .MILLI., .METRE. ) );
#20 = EDGE_CURVE ( 'NONE', #192, #120, #57, .T. ) ;
#21 = APPLICATION_PROTOCOL_DEFINITION ( 'international standard', 'config_control_design', 1994, #169 ) ;
#22 = COORDINATED_UNIVERSAL_TIME_OFFSET ( 2, 0, .AHEAD. ) ;
#23 = AXIS2_PLACEMENT_3D ( 'NONE', #164, #29, #30 ) ;
#24 = PERSON_AND_ORGANIZATION ( #72, #161 ) ;
#25 = ORIENTED_EDGE ( 'NONE', *, *, #96, .T. ) ;
#26 = EDGE_LOOP ( 'NONE', ( #25, #102, #86, #43 ) ) ;
#27 = CC_DESIGN_DATE_AND_TIME_ASSIGNMENT ( #186, #156, ( #138 ) ) ;
#28 = MANIFOLD_SOLID_BREP ( 'Cut-Revolve1', #119 ) ;
#29 = DIRECTION ( 'NONE',  ( -0.000000000000000000, -0.000000000000000000, -1.000000000000000000 ) ) ;
#30 = DIRECTION ( 'NONE',  ( 1.000000000000000000, 0.000000000000000000, 0.000000000000000000 ) ) ;
#31 = CARTESIAN_POINT ( 'NONE',  ( 38.10000000000000142, 4.665904304751416087E-15, 0.000000000000000000 ) ) ;
#32 = CC_DESIGN_APPROVAL ( #66, ( #138 ) ) ;
#33 = ADVANCED_FACE ( 'NONE', ( #46 ), #93, .F. ) ;
#34 = CARTESIAN_POINT ( 'NONE',  ( 38.10000000000000142, 4.665904304751416087E-15, 12.69999999999999929 ) ) ;
#35 = APPROVAL_STATUS ( 'not_yet_approved' ) ;
#36 = AXIS2_PLACEMENT_3D ( 'NONE', #82, #129, #185 ) ;
#37 = ADVANCED_FACE ( 'NONE', ( #45 ), #104, .F. ) ;
#38 = PERSON_AND_ORGANIZATION_ROLE ( 'creator' ) ;
#39 = VECTOR ( 'NONE', #73, 1000.000000000000000 ) ;
#40 = CC_DESIGN_PERSON_AND_ORGANIZATION_ASSIGNMENT ( #2, #38, ( #138 ) ) ;
#41 = APPROVAL_STATUS ( 'not_yet_approved' ) ;
#42 =( NAMED_UNIT ( * ) PLANE_ANGLE_UNIT ( ) SI_UNIT ( $, .RADIAN. ) );
#43 = ORIENTED_EDGE ( 'NONE', *, *, #76, .F. ) ;
#44 = DIRECTION ( 'NONE',  ( 1.000000000000000000, 0.000000000000000000, 0.000000000000000000 ) ) ;
#45 = FACE_OUTER_BOUND ( 'NONE', #10, .T. ) ;
#46 = FACE_OUTER_BOUND ( 'NONE', #178, .T. ) ;
#47 = APPROVAL_PERSON_ORGANIZATION ( #175, #66, #51 ) ;
#48 = SPHERICAL_SURFACE ( 'NONE', #117, 199.9999999999999716 ) ;
#49 = CALENDAR_DATE ( 2021, 26, 2 ) ;
#50 = COORDINATED_UNIVERSAL_TIME_OFFSET ( 2, 0, .AHEAD. ) ;
#51 = APPROVAL_ROLE ( '' ) ;
#52 = ORIENTED_EDGE ( 'NONE', *, *, #76, .T. ) ;
#53 = ORIENTED_EDGE ( 'NONE', *, *, #114, .F. ) ;
#54 = AXIS2_PLACEMENT_3D ( 'NONE', #90, #15, #197 ) ;
#55 = ORIENTED_EDGE ( 'NONE', *, *, #193, .F. ) ;
#56 = ORIENTED_EDGE ( 'NONE', *, *, #20, .F. ) ;
#57 = LINE ( 'NONE', #34, #39 ) ;
#58 = CARTESIAN_POINT ( 'NONE',  ( 2.081668171172168513E-14, 0.000000000000000000, 12.69999999999998863 ) ) ;
#59 = DIRECTION ( 'NONE',  ( -0.000000000000000000, -0.000000000000000000, -1.000000000000000000 ) ) ;
#60 = EDGE_CURVE ( 'NONE', #115, #118, #128, .T. ) ;
#61 = DIRECTION ( 'NONE',  ( 1.000000000000000000, 0.000000000000000000, 0.000000000000000000 ) ) ;
#62 = CALENDAR_DATE ( 2021, 26, 2 ) ;
#63 = PERSON_AND_ORGANIZATION ( #72, #161 ) ;
#64 =( GEOMETRIC_REPRESENTATION_CONTEXT ( 3 ) GLOBAL_UNCERTAINTY_ASSIGNED_CONTEXT ( ( #134 ) ) GLOBAL_UNIT_ASSIGNED_CONTEXT ( ( #19, #42, #142 ) ) REPRESENTATION_CONTEXT ( 'NONE', 'WORKASPACE' ) );
#65 = COORDINATED_UNIVERSAL_TIME_OFFSET ( 2, 0, .AHEAD. ) ;
#66 = APPROVAL ( #35, 'UNSPECIFIED' ) ;
#67 = CALENDAR_DATE ( 2021, 26, 2 ) ;
#68 = APPROVAL_DATE_TIME ( #131, #148 ) ;
#69 = EDGE_LOOP ( 'NONE', ( #56, #162, #52, #177 ) ) ;
#70 = ORIENTED_EDGE ( 'NONE', *, *, #60, .T. ) ;
#71 = LOCAL_TIME ( 8, 16, 34.00000000000000000, #50 ) ;
#72 = PERSON ( 'UNSPECIFIED', 'UNSPECIFIED', 'UNSPECIFIED', ('UNSPECIFIED'), ('UNSPECIFIED'), ('UNSPECIFIED') ) ;
#73 = DIRECTION ( 'NONE',  ( -0.000000000000000000, -0.000000000000000000, -1.000000000000000000 ) ) ;
#74 = CARTESIAN_POINT ( 'NONE',  ( -38.10000000000000142, 0.000000000000000000, 0.000000000000000000 ) ) ;
#75 = DIRECTION ( 'NONE',  ( 0.000000000000000000, 0.000000000000000000, 1.000000000000000000 ) ) ;
#76 = EDGE_CURVE ( 'NONE', #115, #116, #105, .T. ) ;
#77 = DIRECTION ( 'NONE',  ( 0.000000000000000000, 1.000000000000000000, -0.000000000000000000 ) ) ;
#78 = PERSON_AND_ORGANIZATION ( #72, #161 ) ;
#79 = PERSON_AND_ORGANIZATION ( #72, #161 ) ;
#80 = PERSON_AND_ORGANIZATION_ROLE ( 'creator' ) ;
#81 = SECURITY_CLASSIFICATION ( '', '', #84 ) ;
#82 = CARTESIAN_POINT ( 'NONE',  ( 0.000000000000000000, 0.000000000000000000, 0.000000000000000000 ) ) ;
#83 = AXIS2_PLACEMENT_3D ( 'NONE', #163, #122, #89 ) ;
#84 = SECURITY_CLASSIFICATION_LEVEL ( 'unclassified' ) ;
#85 = ORIENTED_EDGE ( 'NONE', *, *, #60, .F. ) ;
#86 = ORIENTED_EDGE ( 'NONE', *, *, #193, .T. ) ;
#87 = AXIS2_PLACEMENT_3D ( 'NONE', #153, #150, #44 ) ;
#88 = AXIS2_PLACEMENT_3D ( 'NONE', #149, #182, #181 ) ;
#89 = DIRECTION ( 'NONE',  ( 1.000000000000000000, 0.000000000000000000, -0.000000000000000000 ) ) ;
#90 = CARTESIAN_POINT ( 'NONE',  ( 0.000000000000000000, 0.000000000000000000, 12.69999999999999929 ) ) ;
#91 = CIRCLE ( 'NONE', #8, 200.0000000000000000 ) ;
#92 = DIRECTION ( 'NONE',  ( 0.000000000000000000, 0.000000000000000000, 1.000000000000000000 ) ) ;
#93 = SPHERICAL_SURFACE ( 'NONE', #87, 199.9999999999999716 ) ;
#94 = PERSON_AND_ORGANIZATION_ROLE ( 'design_supplier' ) ;
#95 = CALENDAR_DATE ( 2021, 26, 2 ) ;
#96 = EDGE_CURVE ( 'NONE', #115, #192, #126, .T. ) ;
#97 = PERSON_AND_ORGANIZATION ( #72, #161 ) ;
#98 = MECHANICAL_CONTEXT ( 'NONE', #169, 'mechanical' ) ;
#99 = DATE_AND_TIME ( #49, #71 ) ;
#100 = EDGE_CURVE ( 'NONE', #192, #118, #91, .T. ) ;
#101 = APPLICATION_CONTEXT ( 'configuration controlled 3d designs of mechanical parts and assemblies' ) ;
#102 = ORIENTED_EDGE ( 'NONE', *, *, #20, .T. ) ;
#103 = APPROVAL ( #41, 'UNSPECIFIED' ) ;
#104 = PLANE ( 'NONE',  #83 ) ;
#105 = LINE ( 'NONE', #165, #1 ) ;
#106 = CARTESIAN_POINT ( 'NONE',  ( 0.000000000000000000, 0.000000000000000000, 0.000000000000000000 ) ) ;
#107 = LOCAL_TIME ( 8, 16, 34.00000000000000000, #65 ) ;
#108 = CARTESIAN_POINT ( 'NONE',  ( 2.081668171172168513E-14, 0.000000000000000000, 209.0374391194914097 ) ) ;
#109 = FACE_OUTER_BOUND ( 'NONE', #69, .T. ) ;
#110 = LOCAL_TIME ( 8, 16, 34.00000000000000000, #22 ) ;
#111 = APPROVAL_DATE_TIME ( #99, #66 ) ;
#112 = CC_DESIGN_DATE_AND_TIME_ASSIGNMENT ( #4, #155, ( #81 ) ) ;
#113 = COORDINATED_UNIVERSAL_TIME_OFFSET ( 2, 0, .AHEAD. ) ;
#114 = EDGE_CURVE ( 'NONE', #192, #115, #176, .T. ) ;
#115 = VERTEX_POINT ( 'NONE', #123 ) ;
#116 = VERTEX_POINT ( 'NONE', #74 ) ;
#117 = AXIS2_PLACEMENT_3D ( 'NONE', #108, #179, #201 ) ;
#118 = VERTEX_POINT ( 'NONE', #14 ) ;
#119 = CLOSED_SHELL ( 'NONE', ( #187, #173, #144, #37, #33 ) ) ;
#120 = VERTEX_POINT ( 'NONE', #31 ) ;
#121 = AXIS2_PLACEMENT_3D ( 'NONE', #106, #92, #61 ) ;
#122 = DIRECTION ( 'NONE',  ( 0.000000000000000000, 0.000000000000000000, 1.000000000000000000 ) ) ;
#123 = CARTESIAN_POINT ( 'NONE',  ( -38.09999999999987352, 0.000000000000000000, 12.69999999999998863 ) ) ;
#124 = FACE_OUTER_BOUND ( 'NONE', #11, .T. ) ;
#125 = CC_DESIGN_PERSON_AND_ORGANIZATION_ASSIGNMENT ( #79, #94, ( #190 ) ) ;
#126 = CIRCLE ( 'NONE', #196, 38.09999999999989484 ) ;
#127 = CARTESIAN_POINT ( 'NONE',  ( 38.09999999999991616, 4.665904304751410565E-15, 12.69999999999998863 ) ) ;
#128 = CIRCLE ( 'NONE', #88, 199.9999999999999716 ) ;
#129 = DIRECTION ( 'NONE',  ( 0.000000000000000000, 0.000000000000000000, 1.000000000000000000 ) ) ;
#130 = CIRCLE ( 'NONE', #157, 38.10000000000000142 ) ;
#131 = DATE_AND_TIME ( #62, #107 ) ;
#132 = SHAPE_DEFINITION_REPRESENTATION ( #135, #9 ) ;
#133 = CC_DESIGN_APPROVAL ( #103, ( #190 ) ) ;
#134 = UNCERTAINTY_MEASURE_WITH_UNIT (LENGTH_MEASURE( 1.000000000000000082E-05 ), #19, 'distance_accuracy_value', 'NONE');
#135 = PRODUCT_DEFINITION_SHAPE ( 'NONE', 'NONE',  #138 ) ;
#136 = CYLINDRICAL_SURFACE ( 'NONE', #54, 38.10000000000000142 ) ;
#137 = CARTESIAN_POINT ( 'NONE',  ( 2.081668171172168513E-14, 0.000000000000000000, 209.0374391194914097 ) ) ;
#138 = PRODUCT_DEFINITION ( 'UNKNOWN', '', #190, #7 ) ;
#139 = DIRECTION ( 'NONE',  ( -0.000000000000000000, -0.000000000000000000, -1.000000000000000000 ) ) ;
#140 = DIRECTION ( 'NONE',  ( 0.000000000000000000, 0.000000000000000000, 1.000000000000000000 ) ) ;
#141 = APPROVAL_ROLE ( '' ) ;
#142 =( NAMED_UNIT ( * ) SI_UNIT ( $, .STERADIAN. ) SOLID_ANGLE_UNIT ( ) );
#143 = LOCAL_TIME ( 8, 16, 34.00000000000000000, #174 ) ;
#144 = ADVANCED_FACE ( 'NONE', ( #109 ), #136, .T. ) ;
#145 = PERSON_AND_ORGANIZATION ( #72, #161 ) ;
#146 = ORIENTED_EDGE ( 'NONE', *, *, #147, .F. ) ;
#147 = EDGE_CURVE ( 'NONE', #116, #120, #16, .T. ) ;
#148 = APPROVAL ( #5, 'UNSPECIFIED' ) ;
#149 = CARTESIAN_POINT ( 'NONE',  ( 2.081668171172168513E-14, 0.000000000000000000, 209.0374391194914097 ) ) ;
#150 = DIRECTION ( 'NONE',  ( 0.000000000000000000, -1.000000000000000000, -0.000000000000000000 ) ) ;
#151 = CC_DESIGN_PERSON_AND_ORGANIZATION_ASSIGNMENT ( #145, #6, ( #81 ) ) ;
#152 = CARTESIAN_POINT ( 'NONE',  ( 0.000000000000000000, 0.000000000000000000, 12.69999999999999929 ) ) ;
#153 = CARTESIAN_POINT ( 'NONE',  ( 2.081668171172168513E-14, 0.000000000000000000, 209.0374391194914097 ) ) ;
#154 = APPROVAL_PERSON_ORGANIZATION ( #78, #148, #141 ) ;
#155 = DATE_TIME_ROLE ( 'classification_date' ) ;
#156 = DATE_TIME_ROLE ( 'creation_date' ) ;
#157 = AXIS2_PLACEMENT_3D ( 'NONE', #168, #140, #184 ) ;
#158 = APPROVAL_DATE_TIME ( #170, #103 ) ;
#159 = CC_DESIGN_PERSON_AND_ORGANIZATION_ASSIGNMENT ( #97, #172, ( #180 ) ) ;
#160 = APPROVAL_ROLE ( '' ) ;
#161 = ORGANIZATION ( 'UNSPECIFIED', 'UNSPECIFIED', '' ) ;
#162 = ORIENTED_EDGE ( 'NONE', *, *, #114, .T. ) ;
#163 = CARTESIAN_POINT ( 'NONE',  ( 0.000000000000000000, 0.000000000000000000, 0.000000000000000000 ) ) ;
#164 = CARTESIAN_POINT ( 'NONE',  ( 2.081668171172168513E-14, 0.000000000000000000, 12.69999999999998863 ) ) ;
#165 = CARTESIAN_POINT ( 'NONE',  ( -38.10000000000000142, 0.000000000000000000, 12.69999999999999929 ) ) ;
#166 = CC_DESIGN_APPROVAL ( #148, ( #81 ) ) ;
#167 = DIRECTION ( 'NONE',  ( -0.000000000000000000, -0.000000000000000000, -1.000000000000000000 ) ) ;
#168 = CARTESIAN_POINT ( 'NONE',  ( 0.000000000000000000, 0.000000000000000000, 0.000000000000000000 ) ) ;
#169 = APPLICATION_CONTEXT ( 'configuration controlled 3d designs of mechanical parts and assemblies' ) ;
#170 = DATE_AND_TIME ( #189, #110 ) ;
#171 = LOCAL_TIME ( 8, 16, 34.00000000000000000, #113 ) ;
#172 = PERSON_AND_ORGANIZATION_ROLE ( 'design_owner' ) ;
#173 = ADVANCED_FACE ( 'NONE', ( #200 ), #198, .T. ) ;
#174 = COORDINATED_UNIVERSAL_TIME_OFFSET ( 2, 0, .AHEAD. ) ;
#175 = PERSON_AND_ORGANIZATION ( #72, #161 ) ;
#176 = CIRCLE ( 'NONE', #23, 38.09999999999989484 ) ;
#177 = ORIENTED_EDGE ( 'NONE', *, *, #147, .T. ) ;
#178 = EDGE_LOOP ( 'NONE', ( #85, #53, #13 ) ) ;
#179 = DIRECTION ( 'NONE',  ( 0.000000000000000000, -1.000000000000000000, -0.000000000000000000 ) ) ;
#180 = PRODUCT ( '010-1705E_UVFS_PCV_window', '010-1705E_UVFS_PCV_window', '', ( #98 ) ) ;
#181 = DIRECTION ( 'NONE',  ( 1.000000000000000000, 1.224646799147353207E-16, 0.000000000000000000 ) ) ;
#182 = DIRECTION ( 'NONE',  ( 1.224646799147353207E-16, -1.000000000000000000, 0.000000000000000000 ) ) ;
#183 = APPROVAL_PERSON_ORGANIZATION ( #63, #103, #160 ) ;
#184 = DIRECTION ( 'NONE',  ( 1.000000000000000000, 0.000000000000000000, 0.000000000000000000 ) ) ;
#185 = DIRECTION ( 'NONE',  ( 1.000000000000000000, 0.000000000000000000, 0.000000000000000000 ) ) ;
#186 = DATE_AND_TIME ( #95, #171 ) ;
#187 = ADVANCED_FACE ( 'NONE', ( #124 ), #48, .F. ) ;
#188 = APPLICATION_PROTOCOL_DEFINITION ( 'international standard', 'config_control_design', 1994, #101 ) ;
#189 = CALENDAR_DATE ( 2021, 26, 2 ) ;
#190 = PRODUCT_DEFINITION_FORMATION_WITH_SPECIFIED_SOURCE ( 'ANY', '', #180, .NOT_KNOWN. ) ;
#191 = CC_DESIGN_PERSON_AND_ORGANIZATION_ASSIGNMENT ( #24, #80, ( #190 ) ) ;
#192 = VERTEX_POINT ( 'NONE', #127 ) ;
#193 = EDGE_CURVE ( 'NONE', #120, #116, #130, .T. ) ;
#194 = ORIENTED_EDGE ( 'NONE', *, *, #100, .F. ) ;
#195 = ORIENTED_EDGE ( 'NONE', *, *, #96, .F. ) ;
#196 = AXIS2_PLACEMENT_3D ( 'NONE', #58, #167, #18 ) ;
#197 = DIRECTION ( 'NONE',  ( -1.000000000000000000, 0.000000000000000000, 0.000000000000000000 ) ) ;
#198 = CYLINDRICAL_SURFACE ( 'NONE', #3, 38.10000000000000142 ) ;
#199 = PRODUCT_RELATED_PRODUCT_CATEGORY ( 'detail', '', ( #180 ) ) ;
#200 = FACE_OUTER_BOUND ( 'NONE', #26, .T. ) ;
#201 = DIRECTION ( 'NONE',  ( 1.000000000000000000, 0.000000000000000000, 0.000000000000000000 ) ) ;
ENDSEC;
END-ISO-10303-21;
