ISO-10303-21;
HEADER;
FILE_DESCRIPTION (( 'STEP AP203' ),
    '1' );
FILE_NAME ('010-1550E_UVFS_PCV_window.STEP',
    '2021-02-25T13:35:42',
    ( '' ),
    ( '' ),
    'SwSTEP 2.0',
    'SolidWorks 2019',
    '' );
FILE_SCHEMA (( 'CONFIG_CONTROL_DESIGN' ));
ENDSEC;

DATA;
#1 = DATE_AND_TIME ( #48, #105 ) ;
#2 = FACE_OUTER_BOUND ( 'NONE', #184, .T. ) ;
#3 = FACE_OUTER_BOUND ( 'NONE', #104, .T. ) ;
#4 = APPROVAL_PERSON_ORGANIZATION ( #134, #144, #194 ) ;
#5 = CARTESIAN_POINT ( 'NONE',  ( 25.39999999999999858, 3.110602869834276865E-15, 0.000000000000000000 ) ) ;
#6 = CARTESIAN_POINT ( 'NONE',  ( 0.000000000000000000, 0.000000000000000000, 10.00000000000000000 ) ) ;
#7 = CALENDAR_DATE ( 2021, 25, 2 ) ;
#8 = ORGANIZATION ( 'UNSPECIFIED', 'UNSPECIFIED', '' ) ;
#9 = PERSON_AND_ORGANIZATION ( #114, #8 ) ;
#10 = PERSON_AND_ORGANIZATION ( #114, #8 ) ;
#11 = VERTEX_POINT ( 'NONE', #109 ) ;
#12 = EDGE_CURVE ( 'NONE', #167, #11, #31, .T. ) ;
#13 = CIRCLE ( 'NONE', #137, 10000.00000000000000 ) ;
#14 = APPLICATION_CONTEXT ( 'configuration controlled 3d designs of mechanical parts and assemblies' ) ;
#15 = APPROVAL ( #65, 'UNSPECIFIED' ) ;
#16 = LINE ( 'NONE', #147, #20 ) ;
#17 = DIRECTION ( 'NONE',  ( -0.000000000000000000, -0.000000000000000000, -1.000000000000000000 ) ) ;
#18 = PRODUCT_DEFINITION_FORMATION_WITH_SPECIFIED_SOURCE ( 'ANY', '', #97, .NOT_KNOWN. ) ;
#19 = CARTESIAN_POINT ( 'NONE',  ( 0.000000000000000000, 0.000000000000000000, 0.000000000000000000 ) ) ;
#20 = VECTOR ( 'NONE', #36, 1000.000000000000000 ) ;
#21 = DIRECTION ( 'NONE',  ( 0.000000000000000000, 0.000000000000000000, 1.000000000000000000 ) ) ;
#22 = UNCERTAINTY_MEASURE_WITH_UNIT (LENGTH_MEASURE( 1.000000000000000082E-05 ), #26, 'distance_accuracy_value', 'NONE');
#23 = CARTESIAN_POINT ( 'NONE',  ( 0.000000000000000000, 0.000000000000000000, 0.000000000000000000 ) ) ;
#24 = CALENDAR_DATE ( 2021, 25, 2 ) ;
#25 = ORIENTED_EDGE ( 'NONE', *, *, #130, .F. ) ;
#26 =( LENGTH_UNIT ( ) NAMED_UNIT ( * ) SI_UNIT ( .MILLI., .METRE. ) );
#27 = VERTEX_POINT ( 'NONE', #5 ) ;
#28 = ORIENTED_EDGE ( 'NONE', *, *, #169, .F. ) ;
#29 = ADVANCED_FACE ( 'NONE', ( #3 ), #72, .T. ) ;
#30 = PERSON_AND_ORGANIZATION_ROLE ( 'creator' ) ;
#31 = CIRCLE ( 'NONE', #86, 10000.00000000000000 ) ;
#32 = APPROVAL_ROLE ( '' ) ;
#33 = PERSON_AND_ORGANIZATION_ROLE ( 'design_supplier' ) ;
#34 = DIRECTION ( 'NONE',  ( 1.000000000000000000, 0.000000000000000000, 0.000000000000000000 ) ) ;
#35 = DIRECTION ( 'NONE',  ( 1.000000000000000000, 1.224646799147353207E-16, 0.000000000000000000 ) ) ;
#36 = DIRECTION ( 'NONE',  ( -0.000000000000000000, -0.000000000000000000, -1.000000000000000000 ) ) ;
#37 = EDGE_CURVE ( 'NONE', #167, #154, #63, .T. ) ;
#38 = CIRCLE ( 'NONE', #155, 25.39999999981489509 ) ;
#39 = DIRECTION ( 'NONE',  ( 1.000000000000000000, 0.000000000000000000, 0.000000000000000000 ) ) ;
#40 = ORIENTED_EDGE ( 'NONE', *, *, #98, .F. ) ;
#41 = CC_DESIGN_PERSON_AND_ORGANIZATION_ASSIGNMENT ( #88, #119, ( #97 ) ) ;
#42 = ORIENTED_EDGE ( 'NONE', *, *, #98, .T. ) ;
#43 = CYLINDRICAL_SURFACE ( 'NONE', #141, 25.39999999999999858 ) ;
#44 = PERSON_AND_ORGANIZATION ( #114, #8 ) ;
#45 = LOCAL_TIME ( 15, 35, 42.00000000000000000, #67 ) ;
#46 = ADVANCED_FACE ( 'NONE', ( #2 ), #82, .F. ) ;
#47 = DATE_TIME_ROLE ( 'classification_date' ) ;
#48 = CALENDAR_DATE ( 2021, 25, 2 ) ;
#49 = CC_DESIGN_APPROVAL ( #144, ( #18 ) ) ;
#50 = CIRCLE ( 'NONE', #100, 25.39999999999999858 ) ;
#51 = CC_DESIGN_DATE_AND_TIME_ASSIGNMENT ( #148, #75, ( #117 ) ) ;
#52 = CARTESIAN_POINT ( 'NONE',  ( 1.228184220991579423E-12, 0.000000000000000000, 10009.96774194797035 ) ) ;
#53 = CARTESIAN_POINT ( 'NONE',  ( 0.000000000000000000, 0.000000000000000000, 0.000000000000000000 ) ) ;
#54 = CARTESIAN_POINT ( 'NONE',  ( 25.39999999981612078, 3.110602869823018242E-15, 9.999999999999786837 ) ) ;
#55 = LINE ( 'NONE', #159, #198 ) ;
#56 = LOCAL_TIME ( 15, 35, 42.00000000000000000, #61 ) ;
#57 = DESIGN_CONTEXT ( 'detailed design', #140, 'design' ) ;
#58 = DIRECTION ( 'NONE',  ( -1.000000000000000000, 0.000000000000000000, 0.000000000000000000 ) ) ;
#59 = ORIENTED_EDGE ( 'NONE', *, *, #115, .T. ) ;
#60 = DIRECTION ( 'NONE',  ( 1.000000000000000000, 0.000000000000000000, 0.000000000000000000 ) ) ;
#61 = COORDINATED_UNIVERSAL_TIME_OFFSET ( 2, 0, .AHEAD. ) ;
#62 = EDGE_LOOP ( 'NONE', ( #80, #171, #181 ) ) ;
#63 = CIRCLE ( 'NONE', #126, 25.39999999981489509 ) ;
#64 = APPLICATION_PROTOCOL_DEFINITION ( 'international standard', 'config_control_design', 1994, #14 ) ;
#65 = APPROVAL_STATUS ( 'not_yet_approved' ) ;
#66 = PERSON_AND_ORGANIZATION_ROLE ( 'classification_officer' ) ;
#67 = COORDINATED_UNIVERSAL_TIME_OFFSET ( 2, 0, .AHEAD. ) ;
#68 = MANIFOLD_SOLID_BREP ( 'Cut-Revolve1', #146 ) ;
#69 = ORIENTED_EDGE ( 'NONE', *, *, #37, .T. ) ;
#70 = DIRECTION ( 'NONE',  ( 0.000000000000000000, 0.000000000000000000, 1.000000000000000000 ) ) ;
#71 = ORIENTED_EDGE ( 'NONE', *, *, #12, .F. ) ;
#72 = CYLINDRICAL_SURFACE ( 'NONE', #142, 25.39999999999999858 ) ;
#73 = CC_DESIGN_PERSON_AND_ORGANIZATION_ASSIGNMENT ( #10, #33, ( #18 ) ) ;
#74 =( NAMED_UNIT ( * ) PLANE_ANGLE_UNIT ( ) SI_UNIT ( $, .RADIAN. ) );
#75 = DATE_TIME_ROLE ( 'creation_date' ) ;
#76 = PERSON_AND_ORGANIZATION_ROLE ( 'creator' ) ;
#77 = ORIENTED_EDGE ( 'NONE', *, *, #169, .T. ) ;
#78 = PRODUCT_RELATED_PRODUCT_CATEGORY ( 'detail', '', ( #97 ) ) ;
#79 = DATE_AND_TIME ( #197, #96 ) ;
#80 = ORIENTED_EDGE ( 'NONE', *, *, #37, .F. ) ;
#81 = ADVANCED_FACE ( 'NONE', ( #145 ), #178, .F. ) ;
#82 = PLANE ( 'NONE',  #173 ) ;
#83 = DIRECTION ( 'NONE',  ( 1.224646799147353207E-16, -1.000000000000000000, 0.000000000000000000 ) ) ;
#84 = CARTESIAN_POINT ( 'NONE',  ( 1.228184220991579423E-12, 0.000000000000000000, 10009.96774194797035 ) ) ;
#85 = CC_DESIGN_APPROVAL ( #165, ( #117 ) ) ;
#86 = AXIS2_PLACEMENT_3D ( 'NONE', #84, #83, #35 ) ;
#87 = DIRECTION ( 'NONE',  ( 0.000000000000000000, -1.000000000000000000, -0.000000000000000000 ) ) ;
#88 = PERSON_AND_ORGANIZATION ( #114, #8 ) ;
#89 = APPROVAL_STATUS ( 'not_yet_approved' ) ;
#90 = EDGE_LOOP ( 'NONE', ( #71, #161, #135 ) ) ;
#91 = DIRECTION ( 'NONE',  ( 1.000000000000000000, 0.000000000000000000, 0.000000000000000000 ) ) ;
#92 = VERTEX_POINT ( 'NONE', #129 ) ;
#93 = AXIS2_PLACEMENT_3D ( 'NONE', #188, #190, #175 ) ;
#94 = CC_DESIGN_APPROVAL ( #15, ( #120 ) ) ;
#95 = DIRECTION ( 'NONE',  ( 0.000000000000000000, 1.000000000000000000, -0.000000000000000000 ) ) ;
#96 = LOCAL_TIME ( 15, 35, 42.00000000000000000, #152 ) ;
#97 = PRODUCT ( '010-1550E_UVFS_PCV_window', '010-1550E_UVFS_PCV_window', '', ( #107 ) ) ;
#98 = EDGE_CURVE ( 'NONE', #154, #27, #55, .T. ) ;
#99 = CARTESIAN_POINT ( 'NONE',  ( 0.000000000000000000, 0.000000000000000000, 10.00000000000000000 ) ) ;
#100 = AXIS2_PLACEMENT_3D ( 'NONE', #53, #176, #60 ) ;
#101 = DIRECTION ( 'NONE',  ( -0.000000000000000000, -0.000000000000000000, -1.000000000000000000 ) ) ;
#102 = FACE_OUTER_BOUND ( 'NONE', #153, .T. ) ;
#103 = APPROVAL_DATE_TIME ( #79, #144 ) ;
#104 = EDGE_LOOP ( 'NONE', ( #69, #42, #77, #122 ) ) ;
#105 = LOCAL_TIME ( 15, 35, 42.00000000000000000, #201 ) ;
#106 = APPLICATION_PROTOCOL_DEFINITION ( 'international standard', 'config_control_design', 1994, #140 ) ;
#107 = MECHANICAL_CONTEXT ( 'NONE', #14, 'mechanical' ) ;
#108 = CC_DESIGN_PERSON_AND_ORGANIZATION_ASSIGNMENT ( #151, #30, ( #117 ) ) ;
#109 = CARTESIAN_POINT ( 'NONE',  ( 1.840507620565255769E-12, 0.000000000000000000, 9.967741947971120453 ) ) ;
#110 = CARTESIAN_POINT ( 'NONE',  ( 1.228184220991579423E-12, 0.000000000000000000, 10009.96774194797035 ) ) ;
#111 = APPROVAL_PERSON_ORGANIZATION ( #124, #165, #193 ) ;
#112 = PRODUCT_DEFINITION_SHAPE ( 'NONE', 'NONE',  #117 ) ;
#113 = DIRECTION ( 'NONE',  ( 1.000000000000000000, 0.000000000000000000, 0.000000000000000000 ) ) ;
#114 = PERSON ( 'UNSPECIFIED', 'UNSPECIFIED', 'UNSPECIFIED', ('UNSPECIFIED'), ('UNSPECIFIED'), ('UNSPECIFIED') ) ;
#115 = EDGE_CURVE ( 'NONE', #167, #92, #16, .T. ) ;
#116 = CARTESIAN_POINT ( 'NONE',  ( 1.228184220991579423E-12, 0.000000000000000000, 10009.96774194797035 ) ) ;
#117 = PRODUCT_DEFINITION ( 'UNKNOWN', '', #18, #57 ) ;
#118 = CARTESIAN_POINT ( 'NONE',  ( 1.228184220991579423E-12, 0.000000000000000000, 9.999999999999786837 ) ) ;
#119 = PERSON_AND_ORGANIZATION_ROLE ( 'design_owner' ) ;
#120 = SECURITY_CLASSIFICATION ( '', '', #174 ) ;
#121 = DIRECTION ( 'NONE',  ( -0.000000000000000000, -0.000000000000000000, -1.000000000000000000 ) ) ;
#122 = ORIENTED_EDGE ( 'NONE', *, *, #115, .F. ) ;
#123 = CC_DESIGN_DATE_AND_TIME_ASSIGNMENT ( #199, #47, ( #120 ) ) ;
#124 = PERSON_AND_ORGANIZATION ( #114, #8 ) ;
#125 = CALENDAR_DATE ( 2021, 25, 2 ) ;
#126 = AXIS2_PLACEMENT_3D ( 'NONE', #162, #131, #179 ) ;
#127 = DIRECTION ( 'NONE',  ( 1.000000000000000000, 0.000000000000000000, -0.000000000000000000 ) ) ;
#128 = DIRECTION ( 'NONE',  ( 0.000000000000000000, -1.000000000000000000, -0.000000000000000000 ) ) ;
#129 = CARTESIAN_POINT ( 'NONE',  ( -25.39999999999999858, 0.000000000000000000, 0.000000000000000000 ) ) ;
#130 = EDGE_CURVE ( 'NONE', #92, #27, #180, .T. ) ;
#131 = DIRECTION ( 'NONE',  ( -0.000000000000000000, -0.000000000000000000, -1.000000000000000000 ) ) ;
#132 = ORIENTED_EDGE ( 'NONE', *, *, #182, .T. ) ;
#133 = ADVANCED_FACE ( 'NONE', ( #143 ), #191, .F. ) ;
#134 = PERSON_AND_ORGANIZATION ( #114, #8 ) ;
#135 = ORIENTED_EDGE ( 'NONE', *, *, #157, .T. ) ;
#136 = DIRECTION ( 'NONE',  ( -0.000000000000000000, -0.000000000000000000, -1.000000000000000000 ) ) ;
#137 = AXIS2_PLACEMENT_3D ( 'NONE', #116, #95, #70 ) ;
#138 = APPROVAL_DATE_TIME ( #1, #15 ) ;
#139 = PERSON_AND_ORGANIZATION ( #114, #8 ) ;
#140 = APPLICATION_CONTEXT ( 'configuration controlled 3d designs of mechanical parts and assemblies' ) ;
#141 = AXIS2_PLACEMENT_3D ( 'NONE', #6, #121, #58 ) ;
#142 = AXIS2_PLACEMENT_3D ( 'NONE', #99, #101, #177 ) ;
#143 = FACE_OUTER_BOUND ( 'NONE', #90, .T. ) ;
#144 = APPROVAL ( #89, 'UNSPECIFIED' ) ;
#145 = FACE_OUTER_BOUND ( 'NONE', #62, .T. ) ;
#146 = CLOSED_SHELL ( 'NONE', ( #81, #29, #187, #46, #133 ) ) ;
#147 = CARTESIAN_POINT ( 'NONE',  ( -25.39999999999999858, 0.000000000000000000, 10.00000000000000000 ) ) ;
#148 = DATE_AND_TIME ( #7, #150 ) ;
#149 = APPROVAL_STATUS ( 'not_yet_approved' ) ;
#150 = LOCAL_TIME ( 15, 35, 42.00000000000000000, #170 ) ;
#151 = PERSON_AND_ORGANIZATION ( #114, #8 ) ;
#152 = COORDINATED_UNIVERSAL_TIME_OFFSET ( 2, 0, .AHEAD. ) ;
#153 = EDGE_LOOP ( 'NONE', ( #40, #132, #59, #195 ) ) ;
#154 = VERTEX_POINT ( 'NONE', #54 ) ;
#155 = AXIS2_PLACEMENT_3D ( 'NONE', #118, #136, #91 ) ;
#156 = SHAPE_DEFINITION_REPRESENTATION ( #112, #196 ) ;
#157 = EDGE_CURVE ( 'NONE', #154, #11, #13, .T. ) ;
#158 = APPROVAL_PERSON_ORGANIZATION ( #44, #15, #32 ) ;
#159 = CARTESIAN_POINT ( 'NONE',  ( 25.39999999999999858, 3.110602869834276865E-15, 10.00000000000000000 ) ) ;
#160 = CC_DESIGN_PERSON_AND_ORGANIZATION_ASSIGNMENT ( #9, #76, ( #18 ) ) ;
#161 = ORIENTED_EDGE ( 'NONE', *, *, #182, .F. ) ;
#162 = CARTESIAN_POINT ( 'NONE',  ( 1.228184220991579423E-12, 0.000000000000000000, 9.999999999999786837 ) ) ;
#163 = CC_DESIGN_SECURITY_CLASSIFICATION ( #120, ( #18 ) ) ;
#164 = AXIS2_PLACEMENT_3D ( 'NONE', #52, #128, #34 ) ;
#165 = APPROVAL ( #149, 'UNSPECIFIED' ) ;
#166 = APPROVAL_DATE_TIME ( #172, #165 ) ;
#167 = VERTEX_POINT ( 'NONE', #189 ) ;
#168 = AXIS2_PLACEMENT_3D ( 'NONE', #23, #183, #39 ) ;
#169 = EDGE_CURVE ( 'NONE', #27, #92, #50, .T. ) ;
#170 = COORDINATED_UNIVERSAL_TIME_OFFSET ( 2, 0, .AHEAD. ) ;
#171 = ORIENTED_EDGE ( 'NONE', *, *, #12, .T. ) ;
#172 = DATE_AND_TIME ( #24, #56 ) ;
#173 = AXIS2_PLACEMENT_3D ( 'NONE', #19, #21, #127 ) ;
#174 = SECURITY_CLASSIFICATION_LEVEL ( 'unclassified' ) ;
#175 = DIRECTION ( 'NONE',  ( 1.000000000000000000, 0.000000000000000000, 0.000000000000000000 ) ) ;
#176 = DIRECTION ( 'NONE',  ( 0.000000000000000000, 0.000000000000000000, 1.000000000000000000 ) ) ;
#177 = DIRECTION ( 'NONE',  ( -1.000000000000000000, 0.000000000000000000, 0.000000000000000000 ) ) ;
#178 = SPHERICAL_SURFACE ( 'NONE', #186, 10000.00000000000000 ) ;
#179 = DIRECTION ( 'NONE',  ( 1.000000000000000000, 0.000000000000000000, 0.000000000000000000 ) ) ;
#180 = CIRCLE ( 'NONE', #93, 25.39999999999999858 ) ;
#181 = ORIENTED_EDGE ( 'NONE', *, *, #157, .F. ) ;
#182 = EDGE_CURVE ( 'NONE', #154, #167, #38, .T. ) ;
#183 = DIRECTION ( 'NONE',  ( 0.000000000000000000, 0.000000000000000000, 1.000000000000000000 ) ) ;
#184 = EDGE_LOOP ( 'NONE', ( #25, #28 ) ) ;
#185 =( NAMED_UNIT ( * ) SI_UNIT ( $, .STERADIAN. ) SOLID_ANGLE_UNIT ( ) );
#186 = AXIS2_PLACEMENT_3D ( 'NONE', #110, #87, #113 ) ;
#187 = ADVANCED_FACE ( 'NONE', ( #102 ), #43, .T. ) ;
#188 = CARTESIAN_POINT ( 'NONE',  ( 0.000000000000000000, 0.000000000000000000, 0.000000000000000000 ) ) ;
#189 = CARTESIAN_POINT ( 'NONE',  ( -25.39999999981366585, 0.000000000000000000, 9.999999999999786837 ) ) ;
#190 = DIRECTION ( 'NONE',  ( 0.000000000000000000, 0.000000000000000000, 1.000000000000000000 ) ) ;
#191 = SPHERICAL_SURFACE ( 'NONE', #164, 10000.00000000000000 ) ;
#192 = CC_DESIGN_PERSON_AND_ORGANIZATION_ASSIGNMENT ( #139, #66, ( #120 ) ) ;
#193 = APPROVAL_ROLE ( '' ) ;
#194 = APPROVAL_ROLE ( '' ) ;
#195 = ORIENTED_EDGE ( 'NONE', *, *, #130, .T. ) ;
#196 = ADVANCED_BREP_SHAPE_REPRESENTATION ( '010-1550E_UVFS_PCV_window', ( #68, #168 ), #200 ) ;
#197 = CALENDAR_DATE ( 2021, 25, 2 ) ;
#198 = VECTOR ( 'NONE', #17, 1000.000000000000000 ) ;
#199 = DATE_AND_TIME ( #125, #45 ) ;
#200 =( GEOMETRIC_REPRESENTATION_CONTEXT ( 3 ) GLOBAL_UNCERTAINTY_ASSIGNED_CONTEXT ( ( #22 ) ) GLOBAL_UNIT_ASSIGNED_CONTEXT ( ( #26, #74, #185 ) ) REPRESENTATION_CONTEXT ( 'NONE', 'WORKASPACE' ) );
#201 = COORDINATED_UNIVERSAL_TIME_OFFSET ( 2, 0, .AHEAD. ) ;
ENDSEC;
END-ISO-10303-21;
