ISO-10303-21;
HEADER;
FILE_DESCRIPTION (( 'STEP AP203' ),
    '1' );
FILE_NAME ('010-1540E_UVFS_PCV_window.STEP',
    '2021-02-25T13:35:24',
    ( '' ),
    ( '' ),
    'SwSTEP 2.0',
    'SolidWorks 2019',
    '' );
FILE_SCHEMA (( 'CONFIG_CONTROL_DESIGN' ));
ENDSEC;

DATA;
#1 = COORDINATED_UNIVERSAL_TIME_OFFSET ( 2, 0, .AHEAD. ) ;
#2 = VECTOR ( 'NONE', #174, 1000.000000000000000 ) ;
#3 = APPROVAL_STATUS ( 'not_yet_approved' ) ;
#4 = APPROVAL ( #156, 'UNSPECIFIED' ) ;
#5 = CARTESIAN_POINT ( 'NONE',  ( 25.39999999967600530, 3.110602869814438197E-15, 9.999999999999786837 ) ) ;
#6 = CIRCLE ( 'NONE', #145, 8000.000000000000000 ) ;
#7 = ORIENTED_EDGE ( 'NONE', *, *, #152, .T. ) ;
#8 = ORIENTED_EDGE ( 'NONE', *, *, #167, .T. ) ;
#9 = ORIENTED_EDGE ( 'NONE', *, *, #92, .F. ) ;
#10 = PRODUCT_DEFINITION_FORMATION_WITH_SPECIFIED_SOURCE ( 'ANY', '', #172, .NOT_KNOWN. ) ;
#11 = CARTESIAN_POINT ( 'NONE',  ( 1.471712207061814216E-12, 0.000000000000000000, 9.959677398381217017 ) ) ;
#12 = PRODUCT_DEFINITION ( 'UNKNOWN', '', #10, #58 ) ;
#13 = LINE ( 'NONE', #134, #23 ) ;
#14 = AXIS2_PLACEMENT_3D ( 'NONE', #80, #149, #151 ) ;
#15 = CYLINDRICAL_SURFACE ( 'NONE', #169, 25.39999999999999858 ) ;
#16 = DIRECTION ( 'NONE',  ( 1.224646799147353207E-16, -1.000000000000000000, 0.000000000000000000 ) ) ;
#17 = PERSON_AND_ORGANIZATION ( #55, #28 ) ;
#18 = APPROVAL_ROLE ( '' ) ;
#19 = PERSON_AND_ORGANIZATION ( #55, #28 ) ;
#20 = PERSON_AND_ORGANIZATION ( #55, #28 ) ;
#21 = CC_DESIGN_PERSON_AND_ORGANIZATION_ASSIGNMENT ( #65, #160, ( #10 ) ) ;
#22 = ORIENTED_EDGE ( 'NONE', *, *, #167, .F. ) ;
#23 = VECTOR ( 'NONE', #45, 1000.000000000000000 ) ;
#24 = ORIENTED_EDGE ( 'NONE', *, *, #152, .F. ) ;
#25 = APPROVAL_PERSON_ORGANIZATION ( #20, #59, #84 ) ;
#26 = ORIENTED_EDGE ( 'NONE', *, *, #126, .F. ) ;
#27 = CARTESIAN_POINT ( 'NONE',  ( 0.000000000000000000, 0.000000000000000000, 0.000000000000000000 ) ) ;
#28 = ORGANIZATION ( 'UNSPECIFIED', 'UNSPECIFIED', '' ) ;
#29 = CYLINDRICAL_SURFACE ( 'NONE', #54, 25.39999999999999858 ) ;
#30 =( LENGTH_UNIT ( ) NAMED_UNIT ( * ) SI_UNIT ( .MILLI., .METRE. ) );
#31 = DIRECTION ( 'NONE',  ( 1.000000000000000000, 0.000000000000000000, 0.000000000000000000 ) ) ;
#32 = CARTESIAN_POINT ( 'NONE',  ( 9.818534874028728154E-13, 0.000000000000000000, 8009.959677398381245 ) ) ;
#33 = PERSON_AND_ORGANIZATION ( #55, #28 ) ;
#34 = APPLICATION_PROTOCOL_DEFINITION ( 'international standard', 'config_control_design', 1994, #165 ) ;
#35 = CC_DESIGN_SECURITY_CLASSIFICATION ( #121, ( #10 ) ) ;
#36 = SECURITY_CLASSIFICATION_LEVEL ( 'unclassified' ) ;
#37 = ADVANCED_FACE ( 'NONE', ( #194 ), #183, .F. ) ;
#38 = DATE_AND_TIME ( #139, #73 ) ;
#39 = LOCAL_TIME ( 15, 35, 24.00000000000000000, #1 ) ;
#40 = CIRCLE ( 'NONE', #68, 25.39999999967502120 ) ;
#41 = VERTEX_POINT ( 'NONE', #5 ) ;
#42 = DIRECTION ( 'NONE',  ( 1.000000000000000000, 0.000000000000000000, 0.000000000000000000 ) ) ;
#43 = FACE_OUTER_BOUND ( 'NONE', #146, .T. ) ;
#44 = APPROVAL_PERSON_ORGANIZATION ( #33, #128, #66 ) ;
#45 = DIRECTION ( 'NONE',  ( -0.000000000000000000, -0.000000000000000000, -1.000000000000000000 ) ) ;
#46 = DIRECTION ( 'NONE',  ( -0.000000000000000000, -0.000000000000000000, -1.000000000000000000 ) ) ;
#47 = DIRECTION ( 'NONE',  ( 0.000000000000000000, -1.000000000000000000, -0.000000000000000000 ) ) ;
#48 = DATE_TIME_ROLE ( 'classification_date' ) ;
#49 = COORDINATED_UNIVERSAL_TIME_OFFSET ( 2, 0, .AHEAD. ) ;
#50 = PERSON_AND_ORGANIZATION_ROLE ( 'design_owner' ) ;
#51 = DATE_AND_TIME ( #193, #155 ) ;
#52 = ADVANCED_FACE ( 'NONE', ( #109 ), #137, .F. ) ;
#53 = ORIENTED_EDGE ( 'NONE', *, *, #182, .T. ) ;
#54 = AXIS2_PLACEMENT_3D ( 'NONE', #199, #135, #61 ) ;
#55 = PERSON ( 'UNSPECIFIED', 'UNSPECIFIED', 'UNSPECIFIED', ('UNSPECIFIED'), ('UNSPECIFIED'), ('UNSPECIFIED') ) ;
#56 = ORIENTED_EDGE ( 'NONE', *, *, #101, .F. ) ;
#57 = CLOSED_SHELL ( 'NONE', ( #37, #147, #159, #72, #52 ) ) ;
#58 = DESIGN_CONTEXT ( 'detailed design', #130, 'design' ) ;
#59 = APPROVAL ( #102, 'UNSPECIFIED' ) ;
#60 = CARTESIAN_POINT ( 'NONE',  ( 25.39999999999999858, 3.110602869834276865E-15, 0.000000000000000000 ) ) ;
#61 = DIRECTION ( 'NONE',  ( -1.000000000000000000, 0.000000000000000000, 0.000000000000000000 ) ) ;
#62 = CARTESIAN_POINT ( 'NONE',  ( 9.818534874028728154E-13, 0.000000000000000000, 8009.959677398381245 ) ) ;
#63 = DIRECTION ( 'NONE',  ( -0.000000000000000000, -0.000000000000000000, -1.000000000000000000 ) ) ;
#64 = CC_DESIGN_APPROVAL ( #59, ( #121 ) ) ;
#65 = PERSON_AND_ORGANIZATION ( #55, #28 ) ;
#66 = APPROVAL_ROLE ( '' ) ;
#67 = CALENDAR_DATE ( 2021, 25, 2 ) ;
#68 = AXIS2_PLACEMENT_3D ( 'NONE', #148, #136, #200 ) ;
#69 = PERSON_AND_ORGANIZATION ( #55, #28 ) ;
#70 = COORDINATED_UNIVERSAL_TIME_OFFSET ( 2, 0, .AHEAD. ) ;
#71 = MANIFOLD_SOLID_BREP ( 'Cut-Revolve1', #57 ) ;
#72 = ADVANCED_FACE ( 'NONE', ( #43 ), #77, .F. ) ;
#73 = LOCAL_TIME ( 15, 35, 24.00000000000000000, #70 ) ;
#74 = ORIENTED_EDGE ( 'NONE', *, *, #112, .T. ) ;
#75 = CC_DESIGN_PERSON_AND_ORGANIZATION_ASSIGNMENT ( #19, #103, ( #10 ) ) ;
#76 = ORIENTED_EDGE ( 'NONE', *, *, #126, .T. ) ;
#77 = PLANE ( 'NONE',  #85 ) ;
#78 = DIRECTION ( 'NONE',  ( 1.000000000000000000, 1.224646799147353207E-16, 0.000000000000000000 ) ) ;
#79 = LINE ( 'NONE', #168, #2 ) ;
#80 = CARTESIAN_POINT ( 'NONE',  ( 0.000000000000000000, 0.000000000000000000, 0.000000000000000000 ) ) ;
#81 = APPROVAL_DATE_TIME ( #86, #4 ) ;
#82 = CC_DESIGN_APPROVAL ( #128, ( #12 ) ) ;
#83 = APPROVAL_DATE_TIME ( #51, #128 ) ;
#84 = APPROVAL_ROLE ( '' ) ;
#85 = AXIS2_PLACEMENT_3D ( 'NONE', #27, #150, #153 ) ;
#86 = DATE_AND_TIME ( #124, #177 ) ;
#87 = APPROVAL_DATE_TIME ( #125, #59 ) ;
#88 = CC_DESIGN_PERSON_AND_ORGANIZATION_ASSIGNMENT ( #116, #99, ( #12 ) ) ;
#89 = AXIS2_PLACEMENT_3D ( 'NONE', #113, #46, #175 ) ;
#90 = ORIENTED_EDGE ( 'NONE', *, *, #132, .F. ) ;
#91 = CARTESIAN_POINT ( 'NONE',  ( -25.39999999999999858, 0.000000000000000000, 0.000000000000000000 ) ) ;
#92 = EDGE_CURVE ( 'NONE', #41, #107, #195, .T. ) ;
#93 = DIRECTION ( 'NONE',  ( 0.000000000000000000, 1.000000000000000000, -0.000000000000000000 ) ) ;
#94 = FACE_OUTER_BOUND ( 'NONE', #142, .T. ) ;
#95 = AXIS2_PLACEMENT_3D ( 'NONE', #171, #188, #31 ) ;
#96 = PRODUCT_RELATED_PRODUCT_CATEGORY ( 'detail', '', ( #172 ) ) ;
#97 = DIRECTION ( 'NONE',  ( 0.000000000000000000, 0.000000000000000000, 1.000000000000000000 ) ) ;
#98 = DATE_TIME_ROLE ( 'creation_date' ) ;
#99 = PERSON_AND_ORGANIZATION_ROLE ( 'creator' ) ;
#100 = CALENDAR_DATE ( 2021, 25, 2 ) ;
#101 = EDGE_CURVE ( 'NONE', #107, #163, #13, .T. ) ;
#102 = APPROVAL_STATUS ( 'not_yet_approved' ) ;
#103 = PERSON_AND_ORGANIZATION_ROLE ( 'creator' ) ;
#104 = AXIS2_PLACEMENT_3D ( 'NONE', #170, #93, #97 ) ;
#105 = ORIENTED_EDGE ( 'NONE', *, *, #101, .T. ) ;
#106 = ORIENTED_EDGE ( 'NONE', *, *, #132, .T. ) ;
#107 = VERTEX_POINT ( 'NONE', #198 ) ;
#108 = DIRECTION ( 'NONE',  ( -1.000000000000000000, 0.000000000000000000, 0.000000000000000000 ) ) ;
#109 = FACE_OUTER_BOUND ( 'NONE', #144, .T. ) ;
#110 = FACE_OUTER_BOUND ( 'NONE', #181, .T. ) ;
#111 = CARTESIAN_POINT ( 'NONE',  ( 0.000000000000000000, 0.000000000000000000, 10.00000000000000000 ) ) ;
#112 = EDGE_CURVE ( 'NONE', #131, #163, #162, .T. ) ;
#113 = CARTESIAN_POINT ( 'NONE',  ( 9.818534874028728154E-13, 0.000000000000000000, 9.999999999999786837 ) ) ;
#114 = COORDINATED_UNIVERSAL_TIME_OFFSET ( 2, 0, .AHEAD. ) ;
#115 = CC_DESIGN_APPROVAL ( #4, ( #10 ) ) ;
#116 = PERSON_AND_ORGANIZATION ( #55, #28 ) ;
#117 = CC_DESIGN_DATE_AND_TIME_ASSIGNMENT ( #157, #48, ( #121 ) ) ;
#118 = APPROVAL_PERSON_ORGANIZATION ( #17, #4, #18 ) ;
#119 = ORIENTED_EDGE ( 'NONE', *, *, #92, .T. ) ;
#120 =( NAMED_UNIT ( * ) PLANE_ANGLE_UNIT ( ) SI_UNIT ( $, .RADIAN. ) );
#121 = SECURITY_CLASSIFICATION ( '', '', #36 ) ;
#122 =( NAMED_UNIT ( * ) SI_UNIT ( $, .STERADIAN. ) SOLID_ANGLE_UNIT ( ) );
#123 = APPLICATION_PROTOCOL_DEFINITION ( 'international standard', 'config_control_design', 1994, #130 ) ;
#124 = CALENDAR_DATE ( 2021, 25, 2 ) ;
#125 = DATE_AND_TIME ( #67, #39 ) ;
#126 = EDGE_CURVE ( 'NONE', #41, #197, #138, .T. ) ;
#127 =( GEOMETRIC_REPRESENTATION_CONTEXT ( 3 ) GLOBAL_UNCERTAINTY_ASSIGNED_CONTEXT ( ( #185 ) ) GLOBAL_UNIT_ASSIGNED_CONTEXT ( ( #30, #120, #122 ) ) REPRESENTATION_CONTEXT ( 'NONE', 'WORKASPACE' ) );
#128 = APPROVAL ( #3, 'UNSPECIFIED' ) ;
#129 = CIRCLE ( 'NONE', #14, 25.39999999999999858 ) ;
#130 = APPLICATION_CONTEXT ( 'configuration controlled 3d designs of mechanical parts and assemblies' ) ;
#131 = VERTEX_POINT ( 'NONE', #60 ) ;
#132 = EDGE_CURVE ( 'NONE', #107, #197, #6, .T. ) ;
#133 = AXIS2_PLACEMENT_3D ( 'NONE', #164, #196, #42 ) ;
#134 = CARTESIAN_POINT ( 'NONE',  ( -25.39999999999999858, 0.000000000000000000, 10.00000000000000000 ) ) ;
#135 = DIRECTION ( 'NONE',  ( -0.000000000000000000, -0.000000000000000000, -1.000000000000000000 ) ) ;
#136 = DIRECTION ( 'NONE',  ( -0.000000000000000000, -0.000000000000000000, -1.000000000000000000 ) ) ;
#137 = SPHERICAL_SURFACE ( 'NONE', #173, 8000.000000000000000 ) ;
#138 = CIRCLE ( 'NONE', #104, 8000.000000000000000 ) ;
#139 = CALENDAR_DATE ( 2021, 25, 2 ) ;
#140 = DIRECTION ( 'NONE',  ( 1.000000000000000000, 0.000000000000000000, 0.000000000000000000 ) ) ;
#141 = CC_DESIGN_PERSON_AND_ORGANIZATION_ASSIGNMENT ( #69, #190, ( #121 ) ) ;
#142 = EDGE_LOOP ( 'NONE', ( #53, #8, #74, #56 ) ) ;
#143 = ADVANCED_BREP_SHAPE_REPRESENTATION ( '010-1540E_UVFS_PCV_window', ( #71, #184 ), #127 ) ;
#144 = EDGE_LOOP ( 'NONE', ( #90, #9, #76 ) ) ;
#145 = AXIS2_PLACEMENT_3D ( 'NONE', #32, #16, #78 ) ;
#146 = EDGE_LOOP ( 'NONE', ( #24, #186 ) ) ;
#147 = ADVANCED_FACE ( 'NONE', ( #94 ), #29, .T. ) ;
#148 = CARTESIAN_POINT ( 'NONE',  ( 9.818534874028728154E-13, 0.000000000000000000, 9.999999999999786837 ) ) ;
#149 = DIRECTION ( 'NONE',  ( 0.000000000000000000, 0.000000000000000000, 1.000000000000000000 ) ) ;
#150 = DIRECTION ( 'NONE',  ( 0.000000000000000000, 0.000000000000000000, 1.000000000000000000 ) ) ;
#151 = DIRECTION ( 'NONE',  ( 1.000000000000000000, 0.000000000000000000, 0.000000000000000000 ) ) ;
#152 = EDGE_CURVE ( 'NONE', #163, #131, #129, .T. ) ;
#153 = DIRECTION ( 'NONE',  ( 1.000000000000000000, 0.000000000000000000, -0.000000000000000000 ) ) ;
#154 = MECHANICAL_CONTEXT ( 'NONE', #165, 'mechanical' ) ;
#155 = LOCAL_TIME ( 15, 35, 24.00000000000000000, #49 ) ;
#156 = APPROVAL_STATUS ( 'not_yet_approved' ) ;
#157 = DATE_AND_TIME ( #100, #191 ) ;
#158 = SHAPE_DEFINITION_REPRESENTATION ( #187, #143 ) ;
#159 = ADVANCED_FACE ( 'NONE', ( #110 ), #15, .T. ) ;
#160 = PERSON_AND_ORGANIZATION_ROLE ( 'design_supplier' ) ;
#161 = EDGE_LOOP ( 'NONE', ( #166, #106, #26 ) ) ;
#162 = CIRCLE ( 'NONE', #95, 25.39999999999999858 ) ;
#163 = VERTEX_POINT ( 'NONE', #91 ) ;
#164 = CARTESIAN_POINT ( 'NONE',  ( 9.818534874028728154E-13, 0.000000000000000000, 8009.959677398381245 ) ) ;
#165 = APPLICATION_CONTEXT ( 'configuration controlled 3d designs of mechanical parts and assemblies' ) ;
#166 = ORIENTED_EDGE ( 'NONE', *, *, #182, .F. ) ;
#167 = EDGE_CURVE ( 'NONE', #41, #131, #79, .T. ) ;
#168 = CARTESIAN_POINT ( 'NONE',  ( 25.39999999999999858, 3.110602869834276865E-15, 10.00000000000000000 ) ) ;
#169 = AXIS2_PLACEMENT_3D ( 'NONE', #111, #63, #108 ) ;
#170 = CARTESIAN_POINT ( 'NONE',  ( 9.818534874028728154E-13, 0.000000000000000000, 8009.959677398381245 ) ) ;
#171 = CARTESIAN_POINT ( 'NONE',  ( 0.000000000000000000, 0.000000000000000000, 0.000000000000000000 ) ) ;
#172 = PRODUCT ( '010-1540E_UVFS_PCV_window', '010-1540E_UVFS_PCV_window', '', ( #154 ) ) ;
#173 = AXIS2_PLACEMENT_3D ( 'NONE', #62, #47, #189 ) ;
#174 = DIRECTION ( 'NONE',  ( -0.000000000000000000, -0.000000000000000000, -1.000000000000000000 ) ) ;
#175 = DIRECTION ( 'NONE',  ( 1.000000000000000000, 0.000000000000000000, 0.000000000000000000 ) ) ;
#176 = CARTESIAN_POINT ( 'NONE',  ( 0.000000000000000000, 0.000000000000000000, 0.000000000000000000 ) ) ;
#177 = LOCAL_TIME ( 15, 35, 24.00000000000000000, #178 ) ;
#178 = COORDINATED_UNIVERSAL_TIME_OFFSET ( 2, 0, .AHEAD. ) ;
#179 = DIRECTION ( 'NONE',  ( 0.000000000000000000, 0.000000000000000000, 1.000000000000000000 ) ) ;
#180 = CC_DESIGN_DATE_AND_TIME_ASSIGNMENT ( #38, #98, ( #12 ) ) ;
#181 = EDGE_LOOP ( 'NONE', ( #22, #119, #105, #7 ) ) ;
#182 = EDGE_CURVE ( 'NONE', #107, #41, #40, .T. ) ;
#183 = SPHERICAL_SURFACE ( 'NONE', #133, 8000.000000000000000 ) ;
#184 = AXIS2_PLACEMENT_3D ( 'NONE', #176, #179, #140 ) ;
#185 = UNCERTAINTY_MEASURE_WITH_UNIT (LENGTH_MEASURE( 1.000000000000000082E-05 ), #30, 'distance_accuracy_value', 'NONE');
#186 = ORIENTED_EDGE ( 'NONE', *, *, #112, .F. ) ;
#187 = PRODUCT_DEFINITION_SHAPE ( 'NONE', 'NONE',  #12 ) ;
#188 = DIRECTION ( 'NONE',  ( 0.000000000000000000, 0.000000000000000000, 1.000000000000000000 ) ) ;
#189 = DIRECTION ( 'NONE',  ( 1.000000000000000000, 0.000000000000000000, 0.000000000000000000 ) ) ;
#190 = PERSON_AND_ORGANIZATION_ROLE ( 'classification_officer' ) ;
#191 = LOCAL_TIME ( 15, 35, 24.00000000000000000, #114 ) ;
#192 = PERSON_AND_ORGANIZATION ( #55, #28 ) ;
#193 = CALENDAR_DATE ( 2021, 25, 2 ) ;
#194 = FACE_OUTER_BOUND ( 'NONE', #161, .T. ) ;
#195 = CIRCLE ( 'NONE', #89, 25.39999999967502120 ) ;
#196 = DIRECTION ( 'NONE',  ( 0.000000000000000000, -1.000000000000000000, -0.000000000000000000 ) ) ;
#197 = VERTEX_POINT ( 'NONE', #11 ) ;
#198 = CARTESIAN_POINT ( 'NONE',  ( -25.39999999967404065, 0.000000000000000000, 9.999999999999786837 ) ) ;
#199 = CARTESIAN_POINT ( 'NONE',  ( 0.000000000000000000, 0.000000000000000000, 10.00000000000000000 ) ) ;
#200 = DIRECTION ( 'NONE',  ( 1.000000000000000000, 0.000000000000000000, 0.000000000000000000 ) ) ;
#201 = CC_DESIGN_PERSON_AND_ORGANIZATION_ASSIGNMENT ( #192, #50, ( #172 ) ) ;
ENDSEC;
END-ISO-10303-21;
