ISO-10303-21;
HEADER;
FILE_DESCRIPTION (( 'STEP AP203' ),
    '1' );
FILE_NAME ('010-1530E_UVFS_PCV_window.STEP',
    '2021-02-25T13:35:05',
    ( '' ),
    ( '' ),
    'SwSTEP 2.0',
    'SolidWorks 2019',
    '' );
FILE_SCHEMA (( 'CONFIG_CONTROL_DESIGN' ));
ENDSEC;

DATA;
#1 = CARTESIAN_POINT ( 'NONE',  ( 0.000000000000000000, 0.000000000000000000, 0.000000000000000000 ) ) ;
#2 = CALENDAR_DATE ( 2021, 25, 2 ) ;
#3 = CIRCLE ( 'NONE', #122, 25.40000000009463577 ) ;
#4 = EDGE_CURVE ( 'NONE', #68, #115, #89, .T. ) ;
#5 = APPROVAL ( #16, 'UNSPECIFIED' ) ;
#6 = ORIENTED_EDGE ( 'NONE', *, *, #4, .F. ) ;
#7 = EDGE_CURVE ( 'NONE', #68, #180, #22, .T. ) ;
#8 = AXIS2_PLACEMENT_3D ( 'NONE', #91, #57, #174 ) ;
#9 = ORIENTED_EDGE ( 'NONE', *, *, #121, .T. ) ;
#10 = CARTESIAN_POINT ( 'NONE',  ( 0.000000000000000000, 0.000000000000000000, 0.000000000000000000 ) ) ;
#11 = CARTESIAN_POINT ( 'NONE',  ( -25.39999999999999858, 0.000000000000000000, 10.00000000000000000 ) ) ;
#12 = APPROVAL_ROLE ( '' ) ;
#13 = FACE_OUTER_BOUND ( 'NONE', #112, .T. ) ;
#14 = APPROVAL_DATE_TIME ( #90, #5 ) ;
#15 = EDGE_CURVE ( 'NONE', #134, #115, #192, .T. ) ;
#16 = APPROVAL_STATUS ( 'not_yet_approved' ) ;
#17 = VECTOR ( 'NONE', #153, 1000.000000000000000 ) ;
#18 = CC_DESIGN_APPROVAL ( #183, ( #65 ) ) ;
#19 = ORIENTED_EDGE ( 'NONE', *, *, #4, .T. ) ;
#20 = ORIENTED_EDGE ( 'NONE', *, *, #163, .T. ) ;
#21 = APPROVAL_PERSON_ORGANIZATION ( #103, #183, #44 ) ;
#22 = CIRCLE ( 'NONE', #52, 25.40000000009463577 ) ;
#23 = CARTESIAN_POINT ( 'NONE',  ( 7.389922007661198222E-13, 0.000000000000000000, 9.999999999999786837 ) ) ;
#24 =( LENGTH_UNIT ( ) NAMED_UNIT ( * ) SI_UNIT ( .MILLI., .METRE. ) );
#25 = DIRECTION ( 'NONE',  ( 0.000000000000000000, -1.000000000000000000, -0.000000000000000000 ) ) ;
#26 = DATE_AND_TIME ( #58, #162 ) ;
#27 = APPLICATION_CONTEXT ( 'configuration controlled 3d designs of mechanical parts and assemblies' ) ;
#28 = DIRECTION ( 'NONE',  ( -1.000000000000000000, 0.000000000000000000, 0.000000000000000000 ) ) ;
#29 = DATE_AND_TIME ( #189, #66 ) ;
#30 = MANIFOLD_SOLID_BREP ( 'Cut-Revolve1', #43 ) ;
#31 = CARTESIAN_POINT ( 'NONE',  ( -25.39999999999999858, 0.000000000000000000, 0.000000000000000000 ) ) ;
#32 = EDGE_CURVE ( 'NONE', #115, #134, #143, .T. ) ;
#33 = PRODUCT_DEFINITION_SHAPE ( 'NONE', 'NONE',  #65 ) ;
#34 = DESIGN_CONTEXT ( 'detailed design', #27, 'design' ) ;
#35 = ADVANCED_FACE ( 'NONE', ( #13 ), #188, .F. ) ;
#36 = LOCAL_TIME ( 15, 35, 5.000000000000000000, #158 ) ;
#37 = ORIENTED_EDGE ( 'NONE', *, *, #163, .F. ) ;
#38 = PERSON_AND_ORGANIZATION ( #178, #124 ) ;
#39 = VERTEX_POINT ( 'NONE', #106 ) ;
#40 =( NAMED_UNIT ( * ) SI_UNIT ( $, .STERADIAN. ) SOLID_ANGLE_UNIT ( ) );
#41 = DIRECTION ( 'NONE',  ( -0.000000000000000000, -0.000000000000000000, -1.000000000000000000 ) ) ;
#42 = CARTESIAN_POINT ( 'NONE',  ( 0.000000000000000000, 0.000000000000000000, 10.00000000000000000 ) ) ;
#43 = CLOSED_SHELL ( 'NONE', ( #177, #70, #171, #35, #51 ) ) ;
#44 = APPROVAL_ROLE ( '' ) ;
#45 = DIRECTION ( 'NONE',  ( 0.000000000000000000, 0.000000000000000000, 1.000000000000000000 ) ) ;
#46 = DIRECTION ( 'NONE',  ( 0.000000000000000000, 0.000000000000000000, 1.000000000000000000 ) ) ;
#47 = APPROVAL_DATE_TIME ( #63, #140 ) ;
#48 = CC_DESIGN_PERSON_AND_ORGANIZATION_ASSIGNMENT ( #195, #182, ( #94 ) ) ;
#49 = CALENDAR_DATE ( 2021, 25, 2 ) ;
#50 = SECURITY_CLASSIFICATION_LEVEL ( 'unclassified' ) ;
#51 = ADVANCED_FACE ( 'NONE', ( #155 ), #159, .F. ) ;
#52 = AXIS2_PLACEMENT_3D ( 'NONE', #23, #71, #186 ) ;
#53 = ORIENTED_EDGE ( 'NONE', *, *, #108, .T. ) ;
#54 = CARTESIAN_POINT ( 'NONE',  ( 7.389922007661198222E-13, 0.000000000000000000, 6009.946236425789721 ) ) ;
#55 = DIRECTION ( 'NONE',  ( -1.000000000000000000, 0.000000000000000000, 0.000000000000000000 ) ) ;
#56 =( NAMED_UNIT ( * ) PLANE_ANGLE_UNIT ( ) SI_UNIT ( $, .RADIAN. ) );
#57 = DIRECTION ( 'NONE',  ( 0.000000000000000000, 1.000000000000000000, -0.000000000000000000 ) ) ;
#58 = CALENDAR_DATE ( 2021, 25, 2 ) ;
#59 = EDGE_LOOP ( 'NONE', ( #145, #127, #181 ) ) ;
#60 = DIRECTION ( 'NONE',  ( 1.224646799147353207E-16, -1.000000000000000000, 0.000000000000000000 ) ) ;
#61 = COORDINATED_UNIVERSAL_TIME_OFFSET ( 2, 0, .AHEAD. ) ;
#62 = APPROVAL_STATUS ( 'not_yet_approved' ) ;
#63 = DATE_AND_TIME ( #49, #36 ) ;
#64 = LOCAL_TIME ( 15, 35, 5.000000000000000000, #131 ) ;
#65 = PRODUCT_DEFINITION ( 'UNKNOWN', '', #81, #34 ) ;
#66 = LOCAL_TIME ( 15, 35, 5.000000000000000000, #61 ) ;
#67 = CIRCLE ( 'NONE', #172, 6000.000000000000000 ) ;
#68 = VERTEX_POINT ( 'NONE', #105 ) ;
#69 = APPLICATION_PROTOCOL_DEFINITION ( 'international standard', 'config_control_design', 1994, #27 ) ;
#70 = ADVANCED_FACE ( 'NONE', ( #76 ), #138, .T. ) ;
#71 = DIRECTION ( 'NONE',  ( -0.000000000000000000, -0.000000000000000000, -1.000000000000000000 ) ) ;
#72 = CALENDAR_DATE ( 2021, 25, 2 ) ;
#73 = CARTESIAN_POINT ( 'NONE',  ( 7.389922007661198222E-13, 0.000000000000000000, 6009.946236425789721 ) ) ;
#74 = CARTESIAN_POINT ( 'NONE',  ( 0.000000000000000000, 0.000000000000000000, 0.000000000000000000 ) ) ;
#75 = PERSON_AND_ORGANIZATION ( #178, #124 ) ;
#76 = FACE_OUTER_BOUND ( 'NONE', #146, .T. ) ;
#77 = CC_DESIGN_DATE_AND_TIME_ASSIGNMENT ( #29, #190, ( #191 ) ) ;
#78 = EDGE_LOOP ( 'NONE', ( #149, #20, #19, #194 ) ) ;
#79 = ORIENTED_EDGE ( 'NONE', *, *, #32, .F. ) ;
#80 = SPHERICAL_SURFACE ( 'NONE', #141, 6000.000000000000000 ) ;
#81 = PRODUCT_DEFINITION_FORMATION_WITH_SPECIFIED_SOURCE ( 'ANY', '', #94, .NOT_KNOWN. ) ;
#82 = CC_DESIGN_PERSON_AND_ORGANIZATION_ASSIGNMENT ( #142, #201, ( #81 ) ) ;
#83 = AXIS2_PLACEMENT_3D ( 'NONE', #42, #102, #28 ) ;
#84 = DIRECTION ( 'NONE',  ( 1.000000000000000000, 0.000000000000000000, 0.000000000000000000 ) ) ;
#85 = DIRECTION ( 'NONE',  ( 1.000000000000000000, 0.000000000000000000, 0.000000000000000000 ) ) ;
#86 = DIRECTION ( 'NONE',  ( 0.000000000000000000, 0.000000000000000000, 1.000000000000000000 ) ) ;
#87 = CARTESIAN_POINT ( 'NONE',  ( 0.000000000000000000, 0.000000000000000000, 0.000000000000000000 ) ) ;
#88 = ADVANCED_BREP_SHAPE_REPRESENTATION ( '010-1530E_UVFS_PCV_window', ( #30, #96 ), #193 ) ;
#89 = LINE ( 'NONE', #11, #95 ) ;
#90 = DATE_AND_TIME ( #2, #101 ) ;
#91 = CARTESIAN_POINT ( 'NONE',  ( 7.389922007661198222E-13, 0.000000000000000000, 6009.946236425789721 ) ) ;
#92 = SHAPE_DEFINITION_REPRESENTATION ( #33, #88 ) ;
#93 = AXIS2_PLACEMENT_3D ( 'NONE', #116, #128, #55 ) ;
#94 = PRODUCT ( '010-1530E_UVFS_PCV_window', '010-1530E_UVFS_PCV_window', '', ( #152 ) ) ;
#95 = VECTOR ( 'NONE', #136, 1000.000000000000000 ) ;
#96 = AXIS2_PLACEMENT_3D ( 'NONE', #87, #165, #130 ) ;
#97 = ORIENTED_EDGE ( 'NONE', *, *, #7, .T. ) ;
#98 = FACE_OUTER_BOUND ( 'NONE', #78, .T. ) ;
#99 = EDGE_CURVE ( 'NONE', #68, #39, #67, .T. ) ;
#100 = APPROVAL_STATUS ( 'not_yet_approved' ) ;
#101 = LOCAL_TIME ( 15, 35, 5.000000000000000000, #139 ) ;
#102 = DIRECTION ( 'NONE',  ( -0.000000000000000000, -0.000000000000000000, -1.000000000000000000 ) ) ;
#103 = PERSON_AND_ORGANIZATION ( #178, #124 ) ;
#104 = AXIS2_PLACEMENT_3D ( 'NONE', #73, #25, #132 ) ;
#105 = CARTESIAN_POINT ( 'NONE',  ( -25.40000000009390035, 0.000000000000000000, 9.999999999999786837 ) ) ;
#106 = CARTESIAN_POINT ( 'NONE',  ( 1.106386240510325671E-12, 0.000000000000000000, 9.946236425789400926 ) ) ;
#107 = PERSON_AND_ORGANIZATION ( #178, #124 ) ;
#108 = EDGE_CURVE ( 'NONE', #180, #134, #197, .T. ) ;
#109 = APPROVAL_ROLE ( '' ) ;
#110 = APPLICATION_CONTEXT ( 'configuration controlled 3d designs of mechanical parts and assemblies' ) ;
#111 = CC_DESIGN_APPROVAL ( #140, ( #81 ) ) ;
#112 = EDGE_LOOP ( 'NONE', ( #79, #166 ) ) ;
#113 = CC_DESIGN_DATE_AND_TIME_ASSIGNMENT ( #26, #160, ( #65 ) ) ;
#114 = PRODUCT_RELATED_PRODUCT_CATEGORY ( 'detail', '', ( #94 ) ) ;
#115 = VERTEX_POINT ( 'NONE', #31 ) ;
#116 = CARTESIAN_POINT ( 'NONE',  ( 0.000000000000000000, 0.000000000000000000, 10.00000000000000000 ) ) ;
#117 = DIRECTION ( 'NONE',  ( 1.000000000000000000, 0.000000000000000000, 0.000000000000000000 ) ) ;
#118 = DIRECTION ( 'NONE',  ( 1.000000000000000000, 1.224646799147353207E-16, 0.000000000000000000 ) ) ;
#119 = PERSON_AND_ORGANIZATION ( #178, #124 ) ;
#120 = APPROVAL_PERSON_ORGANIZATION ( #161, #140, #12 ) ;
#121 = EDGE_CURVE ( 'NONE', #180, #39, #126, .T. ) ;
#122 = AXIS2_PLACEMENT_3D ( 'NONE', #156, #41, #85 ) ;
#123 = PERSON_AND_ORGANIZATION_ROLE ( 'classification_officer' ) ;
#124 = ORGANIZATION ( 'UNSPECIFIED', 'UNSPECIFIED', '' ) ;
#125 = UNCERTAINTY_MEASURE_WITH_UNIT (LENGTH_MEASURE( 1.000000000000000082E-05 ), #24, 'distance_accuracy_value', 'NONE');
#126 = CIRCLE ( 'NONE', #8, 6000.000000000000909 ) ;
#127 = ORIENTED_EDGE ( 'NONE', *, *, #99, .T. ) ;
#128 = DIRECTION ( 'NONE',  ( -0.000000000000000000, -0.000000000000000000, -1.000000000000000000 ) ) ;
#129 = CC_DESIGN_APPROVAL ( #5, ( #191 ) ) ;
#130 = DIRECTION ( 'NONE',  ( 1.000000000000000000, 0.000000000000000000, 0.000000000000000000 ) ) ;
#131 = COORDINATED_UNIVERSAL_TIME_OFFSET ( 2, 0, .AHEAD. ) ;
#132 = DIRECTION ( 'NONE',  ( 1.000000000000000000, 0.000000000000000000, 0.000000000000000000 ) ) ;
#133 = APPROVAL_DATE_TIME ( #168, #183 ) ;
#134 = VERTEX_POINT ( 'NONE', #170 ) ;
#135 = COORDINATED_UNIVERSAL_TIME_OFFSET ( 2, 0, .AHEAD. ) ;
#136 = DIRECTION ( 'NONE',  ( -0.000000000000000000, -0.000000000000000000, -1.000000000000000000 ) ) ;
#137 = PERSON_AND_ORGANIZATION_ROLE ( 'creator' ) ;
#138 = CYLINDRICAL_SURFACE ( 'NONE', #83, 25.39999999999999858 ) ;
#139 = COORDINATED_UNIVERSAL_TIME_OFFSET ( 2, 0, .AHEAD. ) ;
#140 = APPROVAL ( #62, 'UNSPECIFIED' ) ;
#141 = AXIS2_PLACEMENT_3D ( 'NONE', #54, #184, #150 ) ;
#142 = PERSON_AND_ORGANIZATION ( #178, #124 ) ;
#143 = CIRCLE ( 'NONE', #179, 25.39999999999999858 ) ;
#144 = CC_DESIGN_PERSON_AND_ORGANIZATION_ASSIGNMENT ( #38, #198, ( #65 ) ) ;
#145 = ORIENTED_EDGE ( 'NONE', *, *, #7, .F. ) ;
#146 = EDGE_LOOP ( 'NONE', ( #97, #53, #199, #6 ) ) ;
#147 = ORIENTED_EDGE ( 'NONE', *, *, #99, .F. ) ;
#148 = FACE_OUTER_BOUND ( 'NONE', #59, .T. ) ;
#149 = ORIENTED_EDGE ( 'NONE', *, *, #108, .F. ) ;
#150 = DIRECTION ( 'NONE',  ( 1.000000000000000000, 0.000000000000000000, 0.000000000000000000 ) ) ;
#151 = AXIS2_PLACEMENT_3D ( 'NONE', #1, #46, #117 ) ;
#152 = MECHANICAL_CONTEXT ( 'NONE', #110, 'mechanical' ) ;
#153 = DIRECTION ( 'NONE',  ( -0.000000000000000000, -0.000000000000000000, -1.000000000000000000 ) ) ;
#154 = CYLINDRICAL_SURFACE ( 'NONE', #93, 25.39999999999999858 ) ;
#155 = FACE_OUTER_BOUND ( 'NONE', #164, .T. ) ;
#156 = CARTESIAN_POINT ( 'NONE',  ( 7.389922007661198222E-13, 0.000000000000000000, 9.999999999999786837 ) ) ;
#157 = CARTESIAN_POINT ( 'NONE',  ( 7.389922007661198222E-13, 0.000000000000000000, 6009.946236425789721 ) ) ;
#158 = COORDINATED_UNIVERSAL_TIME_OFFSET ( 2, 0, .AHEAD. ) ;
#159 = SPHERICAL_SURFACE ( 'NONE', #104, 6000.000000000000000 ) ;
#160 = DATE_TIME_ROLE ( 'creation_date' ) ;
#161 = PERSON_AND_ORGANIZATION ( #178, #124 ) ;
#162 = LOCAL_TIME ( 15, 35, 5.000000000000000000, #135 ) ;
#163 = EDGE_CURVE ( 'NONE', #180, #68, #3, .T. ) ;
#164 = EDGE_LOOP ( 'NONE', ( #147, #37, #9 ) ) ;
#165 = DIRECTION ( 'NONE',  ( 0.000000000000000000, 0.000000000000000000, 1.000000000000000000 ) ) ;
#166 = ORIENTED_EDGE ( 'NONE', *, *, #15, .F. ) ;
#167 = CARTESIAN_POINT ( 'NONE',  ( 25.40000000009537828, 3.110602869845957529E-15, 9.999999999999786837 ) ) ;
#168 = DATE_AND_TIME ( #72, #64 ) ;
#169 = APPROVAL_PERSON_ORGANIZATION ( #107, #5, #109 ) ;
#170 = CARTESIAN_POINT ( 'NONE',  ( 25.39999999999999858, 3.110602869834276865E-15, 0.000000000000000000 ) ) ;
#171 = ADVANCED_FACE ( 'NONE', ( #98 ), #154, .T. ) ;
#172 = AXIS2_PLACEMENT_3D ( 'NONE', #157, #60, #118 ) ;
#173 = APPLICATION_PROTOCOL_DEFINITION ( 'international standard', 'config_control_design', 1994, #110 ) ;
#174 = DIRECTION ( 'NONE',  ( 0.000000000000000000, 0.000000000000000000, 1.000000000000000000 ) ) ;
#175 = CARTESIAN_POINT ( 'NONE',  ( 25.39999999999999858, 3.110602869834276865E-15, 10.00000000000000000 ) ) ;
#176 = CC_DESIGN_PERSON_AND_ORGANIZATION_ASSIGNMENT ( #75, #123, ( #191 ) ) ;
#177 = ADVANCED_FACE ( 'NONE', ( #148 ), #80, .F. ) ;
#178 = PERSON ( 'UNSPECIFIED', 'UNSPECIFIED', 'UNSPECIFIED', ('UNSPECIFIED'), ('UNSPECIFIED'), ('UNSPECIFIED') ) ;
#179 = AXIS2_PLACEMENT_3D ( 'NONE', #74, #86, #84 ) ;
#180 = VERTEX_POINT ( 'NONE', #167 ) ;
#181 = ORIENTED_EDGE ( 'NONE', *, *, #121, .F. ) ;
#182 = PERSON_AND_ORGANIZATION_ROLE ( 'design_owner' ) ;
#183 = APPROVAL ( #100, 'UNSPECIFIED' ) ;
#184 = DIRECTION ( 'NONE',  ( 0.000000000000000000, -1.000000000000000000, -0.000000000000000000 ) ) ;
#185 = CC_DESIGN_SECURITY_CLASSIFICATION ( #191, ( #81 ) ) ;
#186 = DIRECTION ( 'NONE',  ( 1.000000000000000000, 0.000000000000000000, 0.000000000000000000 ) ) ;
#187 = AXIS2_PLACEMENT_3D ( 'NONE', #10, #45, #200 ) ;
#188 = PLANE ( 'NONE',  #187 ) ;
#189 = CALENDAR_DATE ( 2021, 25, 2 ) ;
#190 = DATE_TIME_ROLE ( 'classification_date' ) ;
#191 = SECURITY_CLASSIFICATION ( '', '', #50 ) ;
#192 = CIRCLE ( 'NONE', #151, 25.39999999999999858 ) ;
#193 =( GEOMETRIC_REPRESENTATION_CONTEXT ( 3 ) GLOBAL_UNCERTAINTY_ASSIGNED_CONTEXT ( ( #125 ) ) GLOBAL_UNIT_ASSIGNED_CONTEXT ( ( #24, #56, #40 ) ) REPRESENTATION_CONTEXT ( 'NONE', 'WORKASPACE' ) );
#194 = ORIENTED_EDGE ( 'NONE', *, *, #32, .T. ) ;
#195 = PERSON_AND_ORGANIZATION ( #178, #124 ) ;
#196 = CC_DESIGN_PERSON_AND_ORGANIZATION_ASSIGNMENT ( #119, #137, ( #81 ) ) ;
#197 = LINE ( 'NONE', #175, #17 ) ;
#198 = PERSON_AND_ORGANIZATION_ROLE ( 'creator' ) ;
#199 = ORIENTED_EDGE ( 'NONE', *, *, #15, .T. ) ;
#200 = DIRECTION ( 'NONE',  ( 1.000000000000000000, 0.000000000000000000, -0.000000000000000000 ) ) ;
#201 = PERSON_AND_ORGANIZATION_ROLE ( 'design_supplier' ) ;
ENDSEC;
END-ISO-10303-21;
