ISO-10303-21;
HEADER;
FILE_DESCRIPTION (( 'STEP AP203' ),
    '1' );
FILE_NAME ('010-1525E_UVFS_PCV_window.STEP',
    '2021-02-25T13:34:45',
    ( '' ),
    ( '' ),
    'SwSTEP 2.0',
    'SolidWorks 2019',
    '' );
FILE_SCHEMA (( 'CONFIG_CONTROL_DESIGN' ));
ENDSEC;

DATA;
#1 = CALENDAR_DATE ( 2021, 25, 2 ) ;
#2 = DIRECTION ( 'NONE',  ( -1.000000000000000000, 0.000000000000000000, 0.000000000000000000 ) ) ;
#3 = DIRECTION ( 'NONE',  ( 1.224646799147353207E-16, -1.000000000000000000, 0.000000000000000000 ) ) ;
#4 = EDGE_CURVE ( 'NONE', #71, #56, #172, .T. ) ;
#5 = DIRECTION ( 'NONE',  ( 1.000000000000000000, 0.000000000000000000, 0.000000000000000000 ) ) ;
#6 = FACE_OUTER_BOUND ( 'NONE', #106, .T. ) ;
#7 = CARTESIAN_POINT ( 'NONE',  ( 0.000000000000000000, 0.000000000000000000, 0.000000000000000000 ) ) ;
#8 = APPROVAL_STATUS ( 'not_yet_approved' ) ;
#9 = SECURITY_CLASSIFICATION ( '', '', #13 ) ;
#10 = PERSON_AND_ORGANIZATION ( #25, #94 ) ;
#11 = PERSON_AND_ORGANIZATION_ROLE ( 'design_supplier' ) ;
#12 = ORIENTED_EDGE ( 'NONE', *, *, #150, .F. ) ;
#13 = SECURITY_CLASSIFICATION_LEVEL ( 'unclassified' ) ;
#14 = CALENDAR_DATE ( 2021, 25, 2 ) ;
#15 = LOCAL_TIME ( 15, 34, 45.00000000000000000, #26 ) ;
#16 = DIRECTION ( 'NONE',  ( -1.000000000000000000, 0.000000000000000000, 0.000000000000000000 ) ) ;
#17 = APPROVAL_PERSON_ORGANIZATION ( #77, #29, #90 ) ;
#18 = PRODUCT_DEFINITION_SHAPE ( 'NONE', 'NONE',  #171 ) ;
#19 = ORIENTED_EDGE ( 'NONE', *, *, #4, .F. ) ;
#20 = CARTESIAN_POINT ( 'NONE',  ( 6.140921104957897114E-13, 0.000000000000000000, 9.999999999999786837 ) ) ;
#21 = EDGE_LOOP ( 'NONE', ( #52, #12, #89 ) ) ;
#22 =( LENGTH_UNIT ( ) NAMED_UNIT ( * ) SI_UNIT ( .MILLI., .METRE. ) );
#23 = COORDINATED_UNIVERSAL_TIME_OFFSET ( 2, 0, .AHEAD. ) ;
#24 = ORIENTED_EDGE ( 'NONE', *, *, #150, .T. ) ;
#25 = PERSON ( 'UNSPECIFIED', 'UNSPECIFIED', 'UNSPECIFIED', ('UNSPECIFIED'), ('UNSPECIFIED'), ('UNSPECIFIED') ) ;
#26 = COORDINATED_UNIVERSAL_TIME_OFFSET ( 2, 0, .AHEAD. ) ;
#27 = ADVANCED_FACE ( 'NONE', ( #6 ), #87, .T. ) ;
#28 =( NAMED_UNIT ( * ) SI_UNIT ( $, .STERADIAN. ) SOLID_ANGLE_UNIT ( ) );
#29 = APPROVAL ( #187, 'UNSPECIFIED' ) ;
#30 = CARTESIAN_POINT ( 'NONE',  ( 25.40000000002531166, 3.110602869837377089E-15, 9.999999999999786837 ) ) ;
#31 = CARTESIAN_POINT ( 'NONE',  ( 25.39999999999999858, 3.110602869834276865E-15, 10.00000000000000000 ) ) ;
#32 = CC_DESIGN_APPROVAL ( #169, ( #9 ) ) ;
#33 = CARTESIAN_POINT ( 'NONE',  ( 9.202538102826278847E-13, 0.000000000000000000, 9.935483583762838578 ) ) ;
#34 = DIRECTION ( 'NONE',  ( 1.000000000000000000, 1.224646799147353207E-16, 0.000000000000000000 ) ) ;
#35 = SPHERICAL_SURFACE ( 'NONE', #197, 5000.000000000000000 ) ;
#36 = CC_DESIGN_PERSON_AND_ORGANIZATION_ASSIGNMENT ( #10, #11, ( #84 ) ) ;
#37 = CARTESIAN_POINT ( 'NONE',  ( 0.000000000000000000, 0.000000000000000000, 0.000000000000000000 ) ) ;
#38 = ORIENTED_EDGE ( 'NONE', *, *, #166, .F. ) ;
#39 = CC_DESIGN_PERSON_AND_ORGANIZATION_ASSIGNMENT ( #105, #41, ( #50 ) ) ;
#40 = CC_DESIGN_SECURITY_CLASSIFICATION ( #9, ( #84 ) ) ;
#41 = PERSON_AND_ORGANIZATION_ROLE ( 'design_owner' ) ;
#42 = ORIENTED_EDGE ( 'NONE', *, *, #186, .T. ) ;
#43 = CC_DESIGN_APPROVAL ( #29, ( #84 ) ) ;
#44 = DATE_AND_TIME ( #72, #15 ) ;
#45 = LINE ( 'NONE', #31, #49 ) ;
#46 = COORDINATED_UNIVERSAL_TIME_OFFSET ( 2, 0, .AHEAD. ) ;
#47 = CARTESIAN_POINT ( 'NONE',  ( 6.140921104957897114E-13, 0.000000000000000000, 5009.935483583763016 ) ) ;
#48 = DIRECTION ( 'NONE',  ( -0.000000000000000000, -0.000000000000000000, -1.000000000000000000 ) ) ;
#49 = VECTOR ( 'NONE', #116, 1000.000000000000000 ) ;
#50 = PRODUCT ( '010-1525E_UVFS_PCV_window', '010-1525E_UVFS_PCV_window', '', ( #104 ) ) ;
#51 = CARTESIAN_POINT ( 'NONE',  ( -25.39999999999999858, 0.000000000000000000, 10.00000000000000000 ) ) ;
#52 = ORIENTED_EDGE ( 'NONE', *, *, #135, .F. ) ;
#53 = AXIS2_PLACEMENT_3D ( 'NONE', #196, #114, #16 ) ;
#54 = ADVANCED_FACE ( 'NONE', ( #69 ), #88, .T. ) ;
#55 = DIRECTION ( 'NONE',  ( 1.000000000000000000, 0.000000000000000000, 0.000000000000000000 ) ) ;
#56 = VERTEX_POINT ( 'NONE', #163 ) ;
#57 = PERSON_AND_ORGANIZATION_ROLE ( 'classification_officer' ) ;
#58 = ORIENTED_EDGE ( 'NONE', *, *, #166, .T. ) ;
#59 = MANIFOLD_SOLID_BREP ( 'Cut-Revolve1', #167 ) ;
#60 = APPROVAL ( #8, 'UNSPECIFIED' ) ;
#61 = DIRECTION ( 'NONE',  ( 0.000000000000000000, 0.000000000000000000, 1.000000000000000000 ) ) ;
#62 = EDGE_CURVE ( 'NONE', #56, #97, #138, .T. ) ;
#63 = DESIGN_CONTEXT ( 'detailed design', #170, 'design' ) ;
#64 = CALENDAR_DATE ( 2021, 25, 2 ) ;
#65 = DATE_AND_TIME ( #1, #158 ) ;
#66 = AXIS2_PLACEMENT_3D ( 'NONE', #68, #128, #101 ) ;
#67 = DIRECTION ( 'NONE',  ( -0.000000000000000000, -0.000000000000000000, -1.000000000000000000 ) ) ;
#68 = CARTESIAN_POINT ( 'NONE',  ( 6.140921104957897114E-13, 0.000000000000000000, 5009.935483583763016 ) ) ;
#69 = FACE_OUTER_BOUND ( 'NONE', #131, .T. ) ;
#70 = CIRCLE ( 'NONE', #117, 25.39999999999999858 ) ;
#71 = VERTEX_POINT ( 'NONE', #157 ) ;
#72 = CALENDAR_DATE ( 2021, 25, 2 ) ;
#73 = CIRCLE ( 'NONE', #175, 25.40000000002469704 ) ;
#74 = ADVANCED_FACE ( 'NONE', ( #149 ), #126, .F. ) ;
#75 = CARTESIAN_POINT ( 'NONE',  ( 0.000000000000000000, 0.000000000000000000, 0.000000000000000000 ) ) ;
#76 = ORIENTED_EDGE ( 'NONE', *, *, #62, .F. ) ;
#77 = PERSON_AND_ORGANIZATION ( #25, #94 ) ;
#78 = APPLICATION_CONTEXT ( 'configuration controlled 3d designs of mechanical parts and assemblies' ) ;
#79 = CC_DESIGN_PERSON_AND_ORGANIZATION_ASSIGNMENT ( #93, #91, ( #84 ) ) ;
#80 = ADVANCED_FACE ( 'NONE', ( #190 ), #35, .F. ) ;
#81 = DIRECTION ( 'NONE',  ( 0.000000000000000000, 0.000000000000000000, 1.000000000000000000 ) ) ;
#82 = AXIS2_PLACEMENT_3D ( 'NONE', #7, #99, #160 ) ;
#83 = APPROVAL_STATUS ( 'not_yet_approved' ) ;
#84 = PRODUCT_DEFINITION_FORMATION_WITH_SPECIFIED_SOURCE ( 'ANY', '', #50, .NOT_KNOWN. ) ;
#85 = DIRECTION ( 'NONE',  ( -0.000000000000000000, -0.000000000000000000, -1.000000000000000000 ) ) ;
#86 = DIRECTION ( 'NONE',  ( 0.000000000000000000, 0.000000000000000000, 1.000000000000000000 ) ) ;
#87 = CYLINDRICAL_SURFACE ( 'NONE', #156, 25.39999999999999858 ) ;
#88 = CYLINDRICAL_SURFACE ( 'NONE', #53, 25.39999999999999858 ) ;
#89 = ORIENTED_EDGE ( 'NONE', *, *, #144, .T. ) ;
#90 = APPROVAL_ROLE ( '' ) ;
#91 = PERSON_AND_ORGANIZATION_ROLE ( 'creator' ) ;
#92 = DIRECTION ( 'NONE',  ( 1.000000000000000000, 0.000000000000000000, 0.000000000000000000 ) ) ;
#93 = PERSON_AND_ORGANIZATION ( #25, #94 ) ;
#94 = ORGANIZATION ( 'UNSPECIFIED', 'UNSPECIFIED', '' ) ;
#95 = ADVANCED_FACE ( 'NONE', ( #125 ), #189, .F. ) ;
#96 = PERSON_AND_ORGANIZATION_ROLE ( 'creator' ) ;
#97 = VERTEX_POINT ( 'NONE', #195 ) ;
#98 = LOCAL_TIME ( 15, 34, 45.00000000000000000, #46 ) ;
#99 = DIRECTION ( 'NONE',  ( 0.000000000000000000, 0.000000000000000000, 1.000000000000000000 ) ) ;
#100 = CARTESIAN_POINT ( 'NONE',  ( 0.000000000000000000, 0.000000000000000000, 10.00000000000000000 ) ) ;
#101 = DIRECTION ( 'NONE',  ( 0.000000000000000000, 0.000000000000000000, 1.000000000000000000 ) ) ;
#102 = APPROVAL_PERSON_ORGANIZATION ( #123, #60, #199 ) ;
#103 = DIRECTION ( 'NONE',  ( 0.000000000000000000, -1.000000000000000000, -0.000000000000000000 ) ) ;
#104 = MECHANICAL_CONTEXT ( 'NONE', #78, 'mechanical' ) ;
#105 = PERSON_AND_ORGANIZATION ( #25, #94 ) ;
#106 = EDGE_LOOP ( 'NONE', ( #180, #24, #193, #148 ) ) ;
#107 = DATE_AND_TIME ( #14, #185 ) ;
#108 = APPLICATION_PROTOCOL_DEFINITION ( 'international standard', 'config_control_design', 1994, #170 ) ;
#109 = AXIS2_PLACEMENT_3D ( 'NONE', #146, #3, #34 ) ;
#110 = DATE_TIME_ROLE ( 'classification_date' ) ;
#111 = DATE_AND_TIME ( #64, #98 ) ;
#112 = APPROVAL_DATE_TIME ( #111, #169 ) ;
#113 = CC_DESIGN_PERSON_AND_ORGANIZATION_ASSIGNMENT ( #182, #96, ( #171 ) ) ;
#114 = DIRECTION ( 'NONE',  ( -0.000000000000000000, -0.000000000000000000, -1.000000000000000000 ) ) ;
#115 = APPROVAL_PERSON_ORGANIZATION ( #201, #169, #145 ) ;
#116 = DIRECTION ( 'NONE',  ( -0.000000000000000000, -0.000000000000000000, -1.000000000000000000 ) ) ;
#117 = AXIS2_PLACEMENT_3D ( 'NONE', #75, #81, #92 ) ;
#118 =( NAMED_UNIT ( * ) PLANE_ANGLE_UNIT ( ) SI_UNIT ( $, .RADIAN. ) );
#119 = VERTEX_POINT ( 'NONE', #30 ) ;
#120 = ORIENTED_EDGE ( 'NONE', *, *, #186, .F. ) ;
#121 = ORIENTED_EDGE ( 'NONE', *, *, #135, .T. ) ;
#122 = AXIS2_PLACEMENT_3D ( 'NONE', #161, #48, #176 ) ;
#123 = PERSON_AND_ORGANIZATION ( #25, #94 ) ;
#124 = AXIS2_PLACEMENT_3D ( 'NONE', #178, #174, #130 ) ;
#125 = FACE_OUTER_BOUND ( 'NONE', #184, .T. ) ;
#126 = PLANE ( 'NONE',  #82 ) ;
#127 = EDGE_CURVE ( 'NONE', #119, #97, #45, .T. ) ;
#128 = DIRECTION ( 'NONE',  ( 0.000000000000000000, 1.000000000000000000, -0.000000000000000000 ) ) ;
#129 = CIRCLE ( 'NONE', #109, 5000.000000000000000 ) ;
#130 = DIRECTION ( 'NONE',  ( 1.000000000000000000, 0.000000000000000000, 0.000000000000000000 ) ) ;
#131 = EDGE_LOOP ( 'NONE', ( #58, #152, #42, #19 ) ) ;
#132 = LOCAL_TIME ( 15, 34, 45.00000000000000000, #23 ) ;
#133 = APPROVAL_DATE_TIME ( #168, #29 ) ;
#134 = CC_DESIGN_PERSON_AND_ORGANIZATION_ASSIGNMENT ( #198, #57, ( #9 ) ) ;
#135 = EDGE_CURVE ( 'NONE', #71, #165, #129, .T. ) ;
#136 = APPLICATION_PROTOCOL_DEFINITION ( 'international standard', 'config_control_design', 1994, #78 ) ;
#137 = COORDINATED_UNIVERSAL_TIME_OFFSET ( 2, 0, .AHEAD. ) ;
#138 = CIRCLE ( 'NONE', #188, 25.39999999999999858 ) ;
#139 = CC_DESIGN_DATE_AND_TIME_ASSIGNMENT ( #107, #164, ( #171 ) ) ;
#140 = DIRECTION ( 'NONE',  ( -0.000000000000000000, -0.000000000000000000, -1.000000000000000000 ) ) ;
#141 = UNCERTAINTY_MEASURE_WITH_UNIT (LENGTH_MEASURE( 1.000000000000000082E-05 ), #22, 'distance_accuracy_value', 'NONE');
#142 = CC_DESIGN_APPROVAL ( #60, ( #171 ) ) ;
#143 = CARTESIAN_POINT ( 'NONE',  ( 0.000000000000000000, 0.000000000000000000, 0.000000000000000000 ) ) ;
#144 = EDGE_CURVE ( 'NONE', #119, #165, #162, .T. ) ;
#145 = APPROVAL_ROLE ( '' ) ;
#146 = CARTESIAN_POINT ( 'NONE',  ( 6.140921104957897114E-13, 0.000000000000000000, 5009.935483583763016 ) ) ;
#147 = EDGE_LOOP ( 'NONE', ( #76, #120 ) ) ;
#148 = ORIENTED_EDGE ( 'NONE', *, *, #62, .T. ) ;
#149 = FACE_OUTER_BOUND ( 'NONE', #147, .T. ) ;
#150 = EDGE_CURVE ( 'NONE', #119, #71, #200, .T. ) ;
#151 = CALENDAR_DATE ( 2021, 25, 2 ) ;
#152 = ORIENTED_EDGE ( 'NONE', *, *, #127, .T. ) ;
#153 = APPROVAL_DATE_TIME ( #44, #60 ) ;
#154 = AXIS2_PLACEMENT_3D ( 'NONE', #37, #61, #55 ) ;
#155 = COORDINATED_UNIVERSAL_TIME_OFFSET ( 2, 0, .AHEAD. ) ;
#156 = AXIS2_PLACEMENT_3D ( 'NONE', #100, #85, #2 ) ;
#157 = CARTESIAN_POINT ( 'NONE',  ( -25.40000000002407887, 0.000000000000000000, 9.999999999999786837 ) ) ;
#158 = LOCAL_TIME ( 15, 34, 45.00000000000000000, #137 ) ;
#159 = ORIENTED_EDGE ( 'NONE', *, *, #144, .F. ) ;
#160 = DIRECTION ( 'NONE',  ( 1.000000000000000000, 0.000000000000000000, -0.000000000000000000 ) ) ;
#161 = CARTESIAN_POINT ( 'NONE',  ( 6.140921104957897114E-13, 0.000000000000000000, 9.999999999999786837 ) ) ;
#162 = CIRCLE ( 'NONE', #66, 5000.000000000000909 ) ;
#163 = CARTESIAN_POINT ( 'NONE',  ( -25.39999999999999858, 0.000000000000000000, 0.000000000000000000 ) ) ;
#164 = DATE_TIME_ROLE ( 'creation_date' ) ;
#165 = VERTEX_POINT ( 'NONE', #33 ) ;
#166 = EDGE_CURVE ( 'NONE', #71, #119, #73, .T. ) ;
#167 = CLOSED_SHELL ( 'NONE', ( #95, #54, #27, #74, #80 ) ) ;
#168 = DATE_AND_TIME ( #151, #132 ) ;
#169 = APPROVAL ( #83, 'UNSPECIFIED' ) ;
#170 = APPLICATION_CONTEXT ( 'configuration controlled 3d designs of mechanical parts and assemblies' ) ;
#171 = PRODUCT_DEFINITION ( 'UNKNOWN', '', #84, #63 ) ;
#172 = LINE ( 'NONE', #51, #194 ) ;
#173 = SHAPE_DEFINITION_REPRESENTATION ( #18, #192 ) ;
#174 = DIRECTION ( 'NONE',  ( 0.000000000000000000, -1.000000000000000000, -0.000000000000000000 ) ) ;
#175 = AXIS2_PLACEMENT_3D ( 'NONE', #20, #140, #183 ) ;
#176 = DIRECTION ( 'NONE',  ( 1.000000000000000000, 0.000000000000000000, 0.000000000000000000 ) ) ;
#177 = DIRECTION ( 'NONE',  ( 1.000000000000000000, 0.000000000000000000, 0.000000000000000000 ) ) ;
#178 = CARTESIAN_POINT ( 'NONE',  ( 6.140921104957897114E-13, 0.000000000000000000, 5009.935483583763016 ) ) ;
#179 =( GEOMETRIC_REPRESENTATION_CONTEXT ( 3 ) GLOBAL_UNCERTAINTY_ASSIGNED_CONTEXT ( ( #141 ) ) GLOBAL_UNIT_ASSIGNED_CONTEXT ( ( #22, #118, #28 ) ) REPRESENTATION_CONTEXT ( 'NONE', 'WORKASPACE' ) );
#180 = ORIENTED_EDGE ( 'NONE', *, *, #127, .F. ) ;
#181 = PRODUCT_RELATED_PRODUCT_CATEGORY ( 'detail', '', ( #50 ) ) ;
#182 = PERSON_AND_ORGANIZATION ( #25, #94 ) ;
#183 = DIRECTION ( 'NONE',  ( 1.000000000000000000, 0.000000000000000000, 0.000000000000000000 ) ) ;
#184 = EDGE_LOOP ( 'NONE', ( #38, #121, #159 ) ) ;
#185 = LOCAL_TIME ( 15, 34, 45.00000000000000000, #155 ) ;
#186 = EDGE_CURVE ( 'NONE', #97, #56, #70, .T. ) ;
#187 = APPROVAL_STATUS ( 'not_yet_approved' ) ;
#188 = AXIS2_PLACEMENT_3D ( 'NONE', #143, #86, #177 ) ;
#189 = SPHERICAL_SURFACE ( 'NONE', #124, 5000.000000000000000 ) ;
#190 = FACE_OUTER_BOUND ( 'NONE', #21, .T. ) ;
#191 = CC_DESIGN_DATE_AND_TIME_ASSIGNMENT ( #65, #110, ( #9 ) ) ;
#192 = ADVANCED_BREP_SHAPE_REPRESENTATION ( '010-1525E_UVFS_PCV_window', ( #59, #154 ), #179 ) ;
#193 = ORIENTED_EDGE ( 'NONE', *, *, #4, .T. ) ;
#194 = VECTOR ( 'NONE', #67, 1000.000000000000000 ) ;
#195 = CARTESIAN_POINT ( 'NONE',  ( 25.39999999999999858, 3.110602869834276865E-15, 0.000000000000000000 ) ) ;
#196 = CARTESIAN_POINT ( 'NONE',  ( 0.000000000000000000, 0.000000000000000000, 10.00000000000000000 ) ) ;
#197 = AXIS2_PLACEMENT_3D ( 'NONE', #47, #103, #5 ) ;
#198 = PERSON_AND_ORGANIZATION ( #25, #94 ) ;
#199 = APPROVAL_ROLE ( '' ) ;
#200 = CIRCLE ( 'NONE', #122, 25.40000000002469704 ) ;
#201 = PERSON_AND_ORGANIZATION ( #25, #94 ) ;
ENDSEC;
END-ISO-10303-21;
