ISO-10303-21;
HEADER;
FILE_DESCRIPTION (( 'STEP AP203' ),
    '1' );
FILE_NAME ('010-1524E_UVFS_PCV_window.STEP',
    '2021-02-25T13:34:26',
    ( '' ),
    ( '' ),
    'SwSTEP 2.0',
    'SolidWorks 2019',
    '' );
FILE_SCHEMA (( 'CONFIG_CONTROL_DESIGN' ));
ENDSEC;

DATA;
#1 = AXIS2_PLACEMENT_3D ( 'NONE', #9, #116, #196 ) ;
#2 = CARTESIAN_POINT ( 'NONE',  ( 0.000000000000000000, 0.000000000000000000, 0.000000000000000000 ) ) ;
#3 = DIRECTION ( 'NONE',  ( 0.000000000000000000, -1.000000000000000000, -0.000000000000000000 ) ) ;
#4 = PERSON_AND_ORGANIZATION_ROLE ( 'design_owner' ) ;
#5 = DIRECTION ( 'NONE',  ( -0.000000000000000000, -0.000000000000000000, -1.000000000000000000 ) ) ;
#6 = CC_DESIGN_APPROVAL ( #161, ( #182 ) ) ;
#7 = COORDINATED_UNIVERSAL_TIME_OFFSET ( 2, 0, .AHEAD. ) ;
#8 = ADVANCED_FACE ( 'NONE', ( #59 ), #94, .T. ) ;
#9 = CARTESIAN_POINT ( 'NONE',  ( 0.000000000000000000, 0.000000000000000000, 10.00000000000000000 ) ) ;
#10 = APPLICATION_CONTEXT ( 'configuration controlled 3d designs of mechanical parts and assemblies' ) ;
#11 = DIRECTION ( 'NONE',  ( 1.000000000000000000, 0.000000000000000000, 0.000000000000000000 ) ) ;
#12 = EDGE_CURVE ( 'NONE', #169, #63, #41, .T. ) ;
#13 = CIRCLE ( 'NONE', #151, 25.39999999999999858 ) ;
#14 = EDGE_CURVE ( 'NONE', #63, #169, #13, .T. ) ;
#15 = CARTESIAN_POINT ( 'NONE',  ( 4.926614671774132148E-13, 0.000000000000000000, 4009.919354187031786 ) ) ;
#16 = ORIENTED_EDGE ( 'NONE', *, *, #181, .T. ) ;
#17 = APPROVAL_DATE_TIME ( #109, #161 ) ;
#18 = AXIS2_PLACEMENT_3D ( 'NONE', #197, #28, #129 ) ;
#19 = CARTESIAN_POINT ( 'NONE',  ( 4.926614671774132148E-13, 0.000000000000000000, 4009.919354187031786 ) ) ;
#20 = ADVANCED_BREP_SHAPE_REPRESENTATION ( '010-1524E_UVFS_PCV_window', ( #168, #99 ), #159 ) ;
#21 = DATE_TIME_ROLE ( 'classification_date' ) ;
#22 = CARTESIAN_POINT ( 'NONE',  ( 25.39999999995525570, 3.110602869831537546E-15, 9.999999999999786837 ) ) ;
#23 = COORDINATED_UNIVERSAL_TIME_OFFSET ( 2, 0, .AHEAD. ) ;
#24 = PERSON_AND_ORGANIZATION_ROLE ( 'creator' ) ;
#25 = DATE_AND_TIME ( #176, #62 ) ;
#26 = APPROVAL_PERSON_ORGANIZATION ( #194, #120, #177 ) ;
#27 = CARTESIAN_POINT ( 'NONE',  ( 25.39999999999999858, 3.110602869834276865E-15, 0.000000000000000000 ) ) ;
#28 = DIRECTION ( 'NONE',  ( -0.000000000000000000, -0.000000000000000000, -1.000000000000000000 ) ) ;
#29 = PRODUCT_DEFINITION_FORMATION_WITH_SPECIFIED_SOURCE ( 'ANY', '', #121, .NOT_KNOWN. ) ;
#30 = ADVANCED_FACE ( 'NONE', ( #140 ), #113, .F. ) ;
#31 = AXIS2_PLACEMENT_3D ( 'NONE', #96, #160, #60 ) ;
#32 = EDGE_LOOP ( 'NONE', ( #149, #118, #108 ) ) ;
#33 = CC_DESIGN_PERSON_AND_ORGANIZATION_ASSIGNMENT ( #40, #24, ( #29 ) ) ;
#34 =( NAMED_UNIT ( * ) SI_UNIT ( $, .STERADIAN. ) SOLID_ANGLE_UNIT ( ) );
#35 = DIRECTION ( 'NONE',  ( 0.000000000000000000, 0.000000000000000000, 1.000000000000000000 ) ) ;
#36 = DATE_AND_TIME ( #190, #44 ) ;
#37 = FACE_OUTER_BOUND ( 'NONE', #187, .T. ) ;
#38 = APPROVAL_STATUS ( 'not_yet_approved' ) ;
#39 = ADVANCED_FACE ( 'NONE', ( #37 ), #173, .F. ) ;
#40 = PERSON_AND_ORGANIZATION ( #125, #107 ) ;
#41 = CIRCLE ( 'NONE', #162, 25.39999999999999858 ) ;
#42 = DIRECTION ( 'NONE',  ( -0.000000000000000000, -0.000000000000000000, -1.000000000000000000 ) ) ;
#43 = LINE ( 'NONE', #61, #95 ) ;
#44 = LOCAL_TIME ( 15, 34, 26.00000000000000000, #154 ) ;
#45 = EDGE_CURVE ( 'NONE', #119, #63, #67, .T. ) ;
#46 = EDGE_LOOP ( 'NONE', ( #16, #132, #122, #185 ) ) ;
#47 = AXIS2_PLACEMENT_3D ( 'NONE', #171, #5, #157 ) ;
#48 = EDGE_LOOP ( 'NONE', ( #103, #164, #50, #163 ) ) ;
#49 = PRODUCT_DEFINITION_SHAPE ( 'NONE', 'NONE',  #174 ) ;
#50 = ORIENTED_EDGE ( 'NONE', *, *, #45, .T. ) ;
#51 =( LENGTH_UNIT ( ) NAMED_UNIT ( * ) SI_UNIT ( .MILLI., .METRE. ) );
#52 = SHAPE_DEFINITION_REPRESENTATION ( #49, #20 ) ;
#53 = APPROVAL_ROLE ( '' ) ;
#54 = APPROVAL_DATE_TIME ( #71, #74 ) ;
#55 = DIRECTION ( 'NONE',  ( 1.000000000000000000, 0.000000000000000000, 0.000000000000000000 ) ) ;
#56 = CC_DESIGN_PERSON_AND_ORGANIZATION_ASSIGNMENT ( #172, #152, ( #182 ) ) ;
#57 = LOCAL_TIME ( 15, 34, 26.00000000000000000, #23 ) ;
#58 = PERSON_AND_ORGANIZATION ( #125, #107 ) ;
#59 = FACE_OUTER_BOUND ( 'NONE', #48, .T. ) ;
#60 = DIRECTION ( 'NONE',  ( 1.000000000000000000, 1.224646799147353207E-16, 0.000000000000000000 ) ) ;
#61 = CARTESIAN_POINT ( 'NONE',  ( 25.39999999999999858, 3.110602869834276865E-15, 10.00000000000000000 ) ) ;
#62 = LOCAL_TIME ( 15, 34, 26.00000000000000000, #110 ) ;
#63 = VERTEX_POINT ( 'NONE', #153 ) ;
#64 = ORIENTED_EDGE ( 'NONE', *, *, #181, .F. ) ;
#65 = MECHANICAL_CONTEXT ( 'NONE', #10, 'mechanical' ) ;
#66 = CIRCLE ( 'NONE', #85, 4000.000000000000000 ) ;
#67 = LINE ( 'NONE', #111, #77 ) ;
#68 = DIRECTION ( 'NONE',  ( -0.000000000000000000, -0.000000000000000000, -1.000000000000000000 ) ) ;
#69 = CC_DESIGN_DATE_AND_TIME_ASSIGNMENT ( #93, #145, ( #174 ) ) ;
#70 = SECURITY_CLASSIFICATION_LEVEL ( 'unclassified' ) ;
#71 = DATE_AND_TIME ( #92, #87 ) ;
#72 = CARTESIAN_POINT ( 'NONE',  ( 4.926614671774132148E-13, 0.000000000000000000, 4009.919354187031786 ) ) ;
#73 = CARTESIAN_POINT ( 'NONE',  ( -25.39999999995427160, 0.000000000000000000, 9.999999999999786837 ) ) ;
#74 = APPROVAL ( #192, 'UNSPECIFIED' ) ;
#75 = CIRCLE ( 'NONE', #31, 4000.000000000000000 ) ;
#76 = VERTEX_POINT ( 'NONE', #22 ) ;
#77 = VECTOR ( 'NONE', #68, 1000.000000000000000 ) ;
#78 = CC_DESIGN_PERSON_AND_ORGANIZATION_ASSIGNMENT ( #79, #143, ( #29 ) ) ;
#79 = PERSON_AND_ORGANIZATION ( #125, #107 ) ;
#80 = CALENDAR_DATE ( 2021, 25, 2 ) ;
#81 = APPROVAL_PERSON_ORGANIZATION ( #124, #161, #53 ) ;
#82 = DIRECTION ( 'NONE',  ( 0.000000000000000000, -1.000000000000000000, -0.000000000000000000 ) ) ;
#83 = FACE_OUTER_BOUND ( 'NONE', #32, .T. ) ;
#84 = CC_DESIGN_DATE_AND_TIME_ASSIGNMENT ( #36, #21, ( #182 ) ) ;
#85 = AXIS2_PLACEMENT_3D ( 'NONE', #15, #136, #165 ) ;
#86 = EDGE_LOOP ( 'NONE', ( #104, #183 ) ) ;
#87 = LOCAL_TIME ( 15, 34, 26.00000000000000000, #7 ) ;
#88 = CARTESIAN_POINT ( 'NONE',  ( 0.000000000000000000, 0.000000000000000000, 0.000000000000000000 ) ) ;
#89 = APPLICATION_PROTOCOL_DEFINITION ( 'international standard', 'config_control_design', 1994, #10 ) ;
#90 = DIRECTION ( 'NONE',  ( 0.000000000000000000, 0.000000000000000000, 1.000000000000000000 ) ) ;
#91 = APPROVAL_STATUS ( 'not_yet_approved' ) ;
#92 = CALENDAR_DATE ( 2021, 25, 2 ) ;
#93 = DATE_AND_TIME ( #80, #144 ) ;
#94 = CYLINDRICAL_SURFACE ( 'NONE', #47, 25.39999999999999858 ) ;
#95 = VECTOR ( 'NONE', #180, 1000.000000000000000 ) ;
#96 = CARTESIAN_POINT ( 'NONE',  ( 4.926614671774132148E-13, 0.000000000000000000, 4009.919354187031786 ) ) ;
#97 = CYLINDRICAL_SURFACE ( 'NONE', #1, 25.39999999999999858 ) ;
#98 = CC_DESIGN_PERSON_AND_ORGANIZATION_ASSIGNMENT ( #128, #195, ( #174 ) ) ;
#99 = AXIS2_PLACEMENT_3D ( 'NONE', #88, #138, #201 ) ;
#100 = APPLICATION_CONTEXT ( 'configuration controlled 3d designs of mechanical parts and assemblies' ) ;
#101 = ORIENTED_EDGE ( 'NONE', *, *, #200, .F. ) ;
#102 = CIRCLE ( 'NONE', #18, 25.39999999995476543 ) ;
#103 = ORIENTED_EDGE ( 'NONE', *, *, #198, .F. ) ;
#104 = ORIENTED_EDGE ( 'NONE', *, *, #14, .F. ) ;
#105 = DESIGN_CONTEXT ( 'detailed design', #100, 'design' ) ;
#106 = ADVANCED_FACE ( 'NONE', ( #83 ), #179, .F. ) ;
#107 = ORGANIZATION ( 'UNSPECIFIED', 'UNSPECIFIED', '' ) ;
#108 = ORIENTED_EDGE ( 'NONE', *, *, #200, .T. ) ;
#109 = DATE_AND_TIME ( #175, #57 ) ;
#110 = COORDINATED_UNIVERSAL_TIME_OFFSET ( 2, 0, .AHEAD. ) ;
#111 = CARTESIAN_POINT ( 'NONE',  ( -25.39999999999999858, 0.000000000000000000, 10.00000000000000000 ) ) ;
#112 = APPROVAL_ROLE ( '' ) ;
#113 = PLANE ( 'NONE',  #114 ) ;
#114 = AXIS2_PLACEMENT_3D ( 'NONE', #189, #141, #150 ) ;
#115 = CARTESIAN_POINT ( 'NONE',  ( 4.926614671774132148E-13, 0.000000000000000000, 9.999999999999786837 ) ) ;
#116 = DIRECTION ( 'NONE',  ( -0.000000000000000000, -0.000000000000000000, -1.000000000000000000 ) ) ;
#117 = CC_DESIGN_SECURITY_CLASSIFICATION ( #182, ( #29 ) ) ;
#118 = ORIENTED_EDGE ( 'NONE', *, *, #142, .F. ) ;
#119 = VERTEX_POINT ( 'NONE', #73 ) ;
#120 = APPROVAL ( #38, 'UNSPECIFIED' ) ;
#121 = PRODUCT ( '010-1524E_UVFS_PCV_window', '010-1524E_UVFS_PCV_window', '', ( #65 ) ) ;
#122 = ORIENTED_EDGE ( 'NONE', *, *, #12, .T. ) ;
#123 = AXIS2_PLACEMENT_3D ( 'NONE', #19, #3, #55 ) ;
#124 = PERSON_AND_ORGANIZATION ( #125, #107 ) ;
#125 = PERSON ( 'UNSPECIFIED', 'UNSPECIFIED', 'UNSPECIFIED', ('UNSPECIFIED'), ('UNSPECIFIED'), ('UNSPECIFIED') ) ;
#126 = APPROVAL_DATE_TIME ( #25, #120 ) ;
#127 = PRODUCT_RELATED_PRODUCT_CATEGORY ( 'detail', '', ( #121 ) ) ;
#128 = PERSON_AND_ORGANIZATION ( #125, #107 ) ;
#129 = DIRECTION ( 'NONE',  ( 1.000000000000000000, 0.000000000000000000, 0.000000000000000000 ) ) ;
#130 = CARTESIAN_POINT ( 'NONE',  ( 7.375908270068839150E-13, 0.000000000000000000, 9.919354187031714787 ) ) ;
#131 = CC_DESIGN_APPROVAL ( #120, ( #174 ) ) ;
#132 = ORIENTED_EDGE ( 'NONE', *, *, #198, .T. ) ;
#133 = ADVANCED_FACE ( 'NONE', ( #146 ), #97, .T. ) ;
#134 = VERTEX_POINT ( 'NONE', #130 ) ;
#135 = CC_DESIGN_APPROVAL ( #74, ( #29 ) ) ;
#136 = DIRECTION ( 'NONE',  ( 0.000000000000000000, 1.000000000000000000, -0.000000000000000000 ) ) ;
#137 = ORIENTED_EDGE ( 'NONE', *, *, #167, .T. ) ;
#138 = DIRECTION ( 'NONE',  ( 0.000000000000000000, 0.000000000000000000, 1.000000000000000000 ) ) ;
#139 = DIRECTION ( 'NONE',  ( 1.000000000000000000, 0.000000000000000000, 0.000000000000000000 ) ) ;
#140 = FACE_OUTER_BOUND ( 'NONE', #86, .T. ) ;
#141 = DIRECTION ( 'NONE',  ( 0.000000000000000000, 0.000000000000000000, 1.000000000000000000 ) ) ;
#142 = EDGE_CURVE ( 'NONE', #76, #119, #102, .T. ) ;
#143 = PERSON_AND_ORGANIZATION_ROLE ( 'design_supplier' ) ;
#144 = LOCAL_TIME ( 15, 34, 26.00000000000000000, #158 ) ;
#145 = DATE_TIME_ROLE ( 'creation_date' ) ;
#146 = FACE_OUTER_BOUND ( 'NONE', #46, .T. ) ;
#147 = DIRECTION ( 'NONE',  ( 1.000000000000000000, 0.000000000000000000, 0.000000000000000000 ) ) ;
#148 = AXIS2_PLACEMENT_3D ( 'NONE', #72, #82, #147 ) ;
#149 = ORIENTED_EDGE ( 'NONE', *, *, #167, .F. ) ;
#150 = DIRECTION ( 'NONE',  ( 1.000000000000000000, 0.000000000000000000, -0.000000000000000000 ) ) ;
#151 = AXIS2_PLACEMENT_3D ( 'NONE', #193, #90, #191 ) ;
#152 = PERSON_AND_ORGANIZATION_ROLE ( 'classification_officer' ) ;
#153 = CARTESIAN_POINT ( 'NONE',  ( -25.39999999999999858, 0.000000000000000000, 0.000000000000000000 ) ) ;
#154 = COORDINATED_UNIVERSAL_TIME_OFFSET ( 2, 0, .AHEAD. ) ;
#155 = CC_DESIGN_PERSON_AND_ORGANIZATION_ASSIGNMENT ( #199, #4, ( #121 ) ) ;
#156 = APPLICATION_PROTOCOL_DEFINITION ( 'international standard', 'config_control_design', 1994, #100 ) ;
#157 = DIRECTION ( 'NONE',  ( -1.000000000000000000, 0.000000000000000000, 0.000000000000000000 ) ) ;
#158 = COORDINATED_UNIVERSAL_TIME_OFFSET ( 2, 0, .AHEAD. ) ;
#159 =( GEOMETRIC_REPRESENTATION_CONTEXT ( 3 ) GLOBAL_UNCERTAINTY_ASSIGNED_CONTEXT ( ( #184 ) ) GLOBAL_UNIT_ASSIGNED_CONTEXT ( ( #51, #170, #34 ) ) REPRESENTATION_CONTEXT ( 'NONE', 'WORKASPACE' ) );
#160 = DIRECTION ( 'NONE',  ( 1.224646799147353207E-16, -1.000000000000000000, 0.000000000000000000 ) ) ;
#161 = APPROVAL ( #91, 'UNSPECIFIED' ) ;
#162 = AXIS2_PLACEMENT_3D ( 'NONE', #2, #35, #139 ) ;
#163 = ORIENTED_EDGE ( 'NONE', *, *, #14, .T. ) ;
#164 = ORIENTED_EDGE ( 'NONE', *, *, #142, .T. ) ;
#165 = DIRECTION ( 'NONE',  ( 0.000000000000000000, 0.000000000000000000, 1.000000000000000000 ) ) ;
#166 = APPROVAL_PERSON_ORGANIZATION ( #58, #74, #112 ) ;
#167 = EDGE_CURVE ( 'NONE', #119, #134, #75, .T. ) ;
#168 = MANIFOLD_SOLID_BREP ( 'Cut-Revolve1', #188 ) ;
#169 = VERTEX_POINT ( 'NONE', #27 ) ;
#170 =( NAMED_UNIT ( * ) PLANE_ANGLE_UNIT ( ) SI_UNIT ( $, .RADIAN. ) );
#171 = CARTESIAN_POINT ( 'NONE',  ( 0.000000000000000000, 0.000000000000000000, 10.00000000000000000 ) ) ;
#172 = PERSON_AND_ORGANIZATION ( #125, #107 ) ;
#173 = SPHERICAL_SURFACE ( 'NONE', #123, 4000.000000000000000 ) ;
#174 = PRODUCT_DEFINITION ( 'UNKNOWN', '', #29, #105 ) ;
#175 = CALENDAR_DATE ( 2021, 25, 2 ) ;
#176 = CALENDAR_DATE ( 2021, 25, 2 ) ;
#177 = APPROVAL_ROLE ( '' ) ;
#178 = CIRCLE ( 'NONE', #186, 25.39999999995476543 ) ;
#179 = SPHERICAL_SURFACE ( 'NONE', #148, 4000.000000000000000 ) ;
#180 = DIRECTION ( 'NONE',  ( -0.000000000000000000, -0.000000000000000000, -1.000000000000000000 ) ) ;
#181 = EDGE_CURVE ( 'NONE', #119, #76, #178, .T. ) ;
#182 = SECURITY_CLASSIFICATION ( '', '', #70 ) ;
#183 = ORIENTED_EDGE ( 'NONE', *, *, #12, .F. ) ;
#184 = UNCERTAINTY_MEASURE_WITH_UNIT (LENGTH_MEASURE( 1.000000000000000082E-05 ), #51, 'distance_accuracy_value', 'NONE');
#185 = ORIENTED_EDGE ( 'NONE', *, *, #45, .F. ) ;
#186 = AXIS2_PLACEMENT_3D ( 'NONE', #115, #42, #11 ) ;
#187 = EDGE_LOOP ( 'NONE', ( #64, #137, #101 ) ) ;
#188 = CLOSED_SHELL ( 'NONE', ( #39, #133, #8, #30, #106 ) ) ;
#189 = CARTESIAN_POINT ( 'NONE',  ( 0.000000000000000000, 0.000000000000000000, 0.000000000000000000 ) ) ;
#190 = CALENDAR_DATE ( 2021, 25, 2 ) ;
#191 = DIRECTION ( 'NONE',  ( 1.000000000000000000, 0.000000000000000000, 0.000000000000000000 ) ) ;
#192 = APPROVAL_STATUS ( 'not_yet_approved' ) ;
#193 = CARTESIAN_POINT ( 'NONE',  ( 0.000000000000000000, 0.000000000000000000, 0.000000000000000000 ) ) ;
#194 = PERSON_AND_ORGANIZATION ( #125, #107 ) ;
#195 = PERSON_AND_ORGANIZATION_ROLE ( 'creator' ) ;
#196 = DIRECTION ( 'NONE',  ( -1.000000000000000000, 0.000000000000000000, 0.000000000000000000 ) ) ;
#197 = CARTESIAN_POINT ( 'NONE',  ( 4.926614671774132148E-13, 0.000000000000000000, 9.999999999999786837 ) ) ;
#198 = EDGE_CURVE ( 'NONE', #76, #169, #43, .T. ) ;
#199 = PERSON_AND_ORGANIZATION ( #125, #107 ) ;
#200 = EDGE_CURVE ( 'NONE', #76, #134, #66, .T. ) ;
#201 = DIRECTION ( 'NONE',  ( 1.000000000000000000, 0.000000000000000000, 0.000000000000000000 ) ) ;
ENDSEC;
END-ISO-10303-21;
