ISO-10303-21;
HEADER;
FILE_DESCRIPTION (( 'STEP AP203' ),
    '1' );
FILE_NAME ('010-1521E_UVFS_PCV_window.STEP',
    '2021-02-25T13:33:50',
    ( '' ),
    ( '' ),
    'SwSTEP 2.0',
    'SolidWorks 2019',
    '' );
FILE_SCHEMA (( 'CONFIG_CONTROL_DESIGN' ));
ENDSEC;

DATA;
#1 = APPROVAL ( #45, 'UNSPECIFIED' ) ;
#2 = DIRECTION ( 'NONE',  ( -0.000000000000000000, -0.000000000000000000, -1.000000000000000000 ) ) ;
#3 = AXIS2_PLACEMENT_3D ( 'NONE', #99, #65, #113 ) ;
#4 = LOCAL_TIME ( 15, 33, 50.00000000000000000, #152 ) ;
#5 = ADVANCED_FACE ( 'NONE', ( #200 ), #188, .F. ) ;
#6 = CARTESIAN_POINT ( 'NONE',  ( 0.000000000000000000, 0.000000000000000000, 10.00000000000000000 ) ) ;
#7 = CARTESIAN_POINT ( 'NONE',  ( 4.618616286172907495E-13, 0.000000000000000000, 9.870964669976611816 ) ) ;
#8 = VERTEX_POINT ( 'NONE', #142 ) ;
#9 = PRODUCT_RELATED_PRODUCT_CATEGORY ( 'detail', '', ( #120 ) ) ;
#10 = CALENDAR_DATE ( 2021, 25, 2 ) ;
#11 = PERSON_AND_ORGANIZATION ( #173, #137 ) ;
#12 = DIRECTION ( 'NONE',  ( 1.000000000000000000, 0.000000000000000000, 0.000000000000000000 ) ) ;
#13 =( NAMED_UNIT ( * ) SI_UNIT ( $, .STERADIAN. ) SOLID_ANGLE_UNIT ( ) );
#14 = ORIENTED_EDGE ( 'NONE', *, *, #27, .T. ) ;
#15 = APPROVAL_DATE_TIME ( #182, #34 ) ;
#16 = CARTESIAN_POINT ( 'NONE',  ( 0.000000000000000000, 0.000000000000000000, 0.000000000000000000 ) ) ;
#17 = VERTEX_POINT ( 'NONE', #112 ) ;
#18 = DIRECTION ( 'NONE',  ( -0.000000000000000000, -0.000000000000000000, -1.000000000000000000 ) ) ;
#19 = LINE ( 'NONE', #145, #20 ) ;
#20 = VECTOR ( 'NONE', #18, 1000.000000000000000 ) ;
#21 = CC_DESIGN_APPROVAL ( #98, ( #141 ) ) ;
#22 = CARTESIAN_POINT ( 'NONE',  ( 0.000000000000000000, 0.000000000000000000, 0.000000000000000000 ) ) ;
#23 = CYLINDRICAL_SURFACE ( 'NONE', #77, 25.39999999999999858 ) ;
#24 = APPROVAL_DATE_TIME ( #149, #98 ) ;
#25 = AXIS2_PLACEMENT_3D ( 'NONE', #53, #191, #132 ) ;
#26 = DATE_AND_TIME ( #90, #31 ) ;
#27 = EDGE_CURVE ( 'NONE', #8, #184, #133, .T. ) ;
#28 = APPLICATION_PROTOCOL_DEFINITION ( 'international standard', 'config_control_design', 1994, #74 ) ;
#29 = AXIS2_PLACEMENT_3D ( 'NONE', #161, #176, #129 ) ;
#30 = PERSON_AND_ORGANIZATION ( #173, #137 ) ;
#31 = LOCAL_TIME ( 15, 33, 50.00000000000000000, #168 ) ;
#32 = ORIENTED_EDGE ( 'NONE', *, *, #101, .T. ) ;
#33 = CARTESIAN_POINT ( 'NONE',  ( 3.087807787238716628E-13, 0.000000000000000000, 9.999999999999786837 ) ) ;
#34 = APPROVAL ( #139, 'UNSPECIFIED' ) ;
#35 = ADVANCED_FACE ( 'NONE', ( #87 ), #23, .T. ) ;
#36 = DIRECTION ( 'NONE',  ( 0.000000000000000000, -1.000000000000000000, -0.000000000000000000 ) ) ;
#37 =( GEOMETRIC_REPRESENTATION_CONTEXT ( 3 ) GLOBAL_UNCERTAINTY_ASSIGNED_CONTEXT ( ( #115 ) ) GLOBAL_UNIT_ASSIGNED_CONTEXT ( ( #175, #160, #13 ) ) REPRESENTATION_CONTEXT ( 'NONE', 'WORKASPACE' ) );
#38 = CARTESIAN_POINT ( 'NONE',  ( 3.087807787238716628E-13, 0.000000000000000000, 2509.870964669976729 ) ) ;
#39 = LINE ( 'NONE', #178, #82 ) ;
#40 = CC_DESIGN_PERSON_AND_ORGANIZATION_ASSIGNMENT ( #151, #180, ( #120 ) ) ;
#41 = APPROVAL_DATE_TIME ( #59, #1 ) ;
#42 = AXIS2_PLACEMENT_3D ( 'NONE', #38, #70, #88 ) ;
#43 = DATE_AND_TIME ( #181, #4 ) ;
#44 = ORIENTED_EDGE ( 'NONE', *, *, #49, .F. ) ;
#45 = APPROVAL_STATUS ( 'not_yet_approved' ) ;
#46 = VERTEX_POINT ( 'NONE', #68 ) ;
#47 = CC_DESIGN_DATE_AND_TIME_ASSIGNMENT ( #43, #107, ( #148 ) ) ;
#48 = EDGE_LOOP ( 'NONE', ( #63, #127, #72, #32 ) ) ;
#49 = EDGE_CURVE ( 'NONE', #8, #110, #165, .T. ) ;
#50 = AXIS2_PLACEMENT_3D ( 'NONE', #33, #192, #146 ) ;
#51 = DIRECTION ( 'NONE',  ( -1.000000000000000000, 0.000000000000000000, 0.000000000000000000 ) ) ;
#52 = PRODUCT_DEFINITION_FORMATION_WITH_SPECIFIED_SOURCE ( 'ANY', '', #120, .NOT_KNOWN. ) ;
#53 = CARTESIAN_POINT ( 'NONE',  ( 3.087807787238716628E-13, 0.000000000000000000, 2509.870964669976729 ) ) ;
#54 = EDGE_CURVE ( 'NONE', #184, #17, #39, .T. ) ;
#55 = AXIS2_PLACEMENT_3D ( 'NONE', #159, #36, #84 ) ;
#56 = LOCAL_TIME ( 15, 33, 50.00000000000000000, #106 ) ;
#57 = PRODUCT_DEFINITION_SHAPE ( 'NONE', 'NONE',  #148 ) ;
#58 = COORDINATED_UNIVERSAL_TIME_OFFSET ( 2, 0, .AHEAD. ) ;
#59 = DATE_AND_TIME ( #140, #56 ) ;
#60 = PERSON_AND_ORGANIZATION_ROLE ( 'creator' ) ;
#61 = AXIS2_PLACEMENT_3D ( 'NONE', #93, #92, #12 ) ;
#62 = EDGE_LOOP ( 'NONE', ( #155, #83 ) ) ;
#63 = ORIENTED_EDGE ( 'NONE', *, *, #54, .F. ) ;
#64 = CARTESIAN_POINT ( 'NONE',  ( 0.000000000000000000, 0.000000000000000000, 10.00000000000000000 ) ) ;
#65 = DIRECTION ( 'NONE',  ( -0.000000000000000000, -0.000000000000000000, -1.000000000000000000 ) ) ;
#66 = CC_DESIGN_PERSON_AND_ORGANIZATION_ASSIGNMENT ( #150, #80, ( #141 ) ) ;
#67 = APPROVAL_PERSON_ORGANIZATION ( #154, #34, #197 ) ;
#68 = CARTESIAN_POINT ( 'NONE',  ( -25.39999999999999858, 0.000000000000000000, 0.000000000000000000 ) ) ;
#69 = CIRCLE ( 'NONE', #153, 25.39999999999999858 ) ;
#70 = DIRECTION ( 'NONE',  ( 0.000000000000000000, -1.000000000000000000, -0.000000000000000000 ) ) ;
#71 = ADVANCED_FACE ( 'NONE', ( #177 ), #100, .F. ) ;
#72 = ORIENTED_EDGE ( 'NONE', *, *, #164, .T. ) ;
#73 = PERSON_AND_ORGANIZATION_ROLE ( 'design_supplier' ) ;
#74 = APPLICATION_CONTEXT ( 'configuration controlled 3d designs of mechanical parts and assemblies' ) ;
#75 = APPROVAL_STATUS ( 'not_yet_approved' ) ;
#76 = PERSON_AND_ORGANIZATION ( #173, #137 ) ;
#77 = AXIS2_PLACEMENT_3D ( 'NONE', #6, #114, #131 ) ;
#78 = APPROVAL_ROLE ( '' ) ;
#79 = CC_DESIGN_SECURITY_CLASSIFICATION ( #141, ( #52 ) ) ;
#80 = PERSON_AND_ORGANIZATION_ROLE ( 'classification_officer' ) ;
#81 = DIRECTION ( 'NONE',  ( 1.000000000000000000, 0.000000000000000000, -0.000000000000000000 ) ) ;
#82 = VECTOR ( 'NONE', #102, 1000.000000000000000 ) ;
#83 = ORIENTED_EDGE ( 'NONE', *, *, #108, .F. ) ;
#84 = DIRECTION ( 'NONE',  ( 1.000000000000000000, 0.000000000000000000, 0.000000000000000000 ) ) ;
#85 = CYLINDRICAL_SURFACE ( 'NONE', #124, 25.39999999999999858 ) ;
#86 = CC_DESIGN_DATE_AND_TIME_ASSIGNMENT ( #26, #91, ( #141 ) ) ;
#87 = FACE_OUTER_BOUND ( 'NONE', #109, .T. ) ;
#88 = DIRECTION ( 'NONE',  ( 1.000000000000000000, 0.000000000000000000, 0.000000000000000000 ) ) ;
#89 = AXIS2_PLACEMENT_3D ( 'NONE', #16, #186, #81 ) ;
#90 = CALENDAR_DATE ( 2021, 25, 2 ) ;
#91 = DATE_TIME_ROLE ( 'classification_date' ) ;
#92 = DIRECTION ( 'NONE',  ( 0.000000000000000000, 0.000000000000000000, 1.000000000000000000 ) ) ;
#93 = CARTESIAN_POINT ( 'NONE',  ( 0.000000000000000000, 0.000000000000000000, 0.000000000000000000 ) ) ;
#94 = CIRCLE ( 'NONE', #3, 25.39999999998973124 ) ;
#95 = PERSON_AND_ORGANIZATION_ROLE ( 'creator' ) ;
#96 = ORIENTED_EDGE ( 'NONE', *, *, #128, .F. ) ;
#97 = EDGE_LOOP ( 'NONE', ( #44, #158, #143 ) ) ;
#98 = APPROVAL ( #75, 'UNSPECIFIED' ) ;
#99 = CARTESIAN_POINT ( 'NONE',  ( 3.087807787238716628E-13, 0.000000000000000000, 9.999999999999786837 ) ) ;
#100 = SPHERICAL_SURFACE ( 'NONE', #42, 2500.000000000000000 ) ;
#101 = EDGE_CURVE ( 'NONE', #46, #17, #156, .T. ) ;
#102 = DIRECTION ( 'NONE',  ( -0.000000000000000000, -0.000000000000000000, -1.000000000000000000 ) ) ;
#103 = AXIS2_PLACEMENT_3D ( 'NONE', #22, #163, #162 ) ;
#104 = CC_DESIGN_PERSON_AND_ORGANIZATION_ASSIGNMENT ( #183, #73, ( #52 ) ) ;
#105 = APPROVAL_PERSON_ORGANIZATION ( #11, #98, #195 ) ;
#106 = COORDINATED_UNIVERSAL_TIME_OFFSET ( 2, 0, .AHEAD. ) ;
#107 = DATE_TIME_ROLE ( 'creation_date' ) ;
#108 = EDGE_CURVE ( 'NONE', #17, #46, #69, .T. ) ;
#109 = EDGE_LOOP ( 'NONE', ( #14, #199, #187, #125 ) ) ;
#110 = VERTEX_POINT ( 'NONE', #7 ) ;
#111 = LOCAL_TIME ( 15, 33, 50.00000000000000000, #58 ) ;
#112 = CARTESIAN_POINT ( 'NONE',  ( 25.39999999999999858, 3.110602869834276865E-15, 0.000000000000000000 ) ) ;
#113 = DIRECTION ( 'NONE',  ( 1.000000000000000000, 0.000000000000000000, 0.000000000000000000 ) ) ;
#114 = DIRECTION ( 'NONE',  ( -0.000000000000000000, -0.000000000000000000, -1.000000000000000000 ) ) ;
#115 = UNCERTAINTY_MEASURE_WITH_UNIT (LENGTH_MEASURE( 1.000000000000000082E-05 ), #175, 'distance_accuracy_value', 'NONE');
#116 = DIRECTION ( 'NONE',  ( 1.000000000000000000, 0.000000000000000000, 0.000000000000000000 ) ) ;
#117 = CIRCLE ( 'NONE', #29, 2500.000000000000455 ) ;
#118 = APPROVAL_PERSON_ORGANIZATION ( #76, #1, #78 ) ;
#119 = MECHANICAL_CONTEXT ( 'NONE', #194, 'mechanical' ) ;
#120 = PRODUCT ( '010-1521E_UVFS_PCV_window', '010-1521E_UVFS_PCV_window', '', ( #119 ) ) ;
#121 = EDGE_CURVE ( 'NONE', #184, #8, #94, .T. ) ;
#122 = COORDINATED_UNIVERSAL_TIME_OFFSET ( 2, 0, .AHEAD. ) ;
#123 = CC_DESIGN_PERSON_AND_ORGANIZATION_ASSIGNMENT ( #30, #95, ( #52 ) ) ;
#124 = AXIS2_PLACEMENT_3D ( 'NONE', #64, #2, #51 ) ;
#125 = ORIENTED_EDGE ( 'NONE', *, *, #164, .F. ) ;
#126 = CC_DESIGN_PERSON_AND_ORGANIZATION_ASSIGNMENT ( #169, #60, ( #148 ) ) ;
#127 = ORIENTED_EDGE ( 'NONE', *, *, #121, .T. ) ;
#128 = EDGE_CURVE ( 'NONE', #184, #110, #117, .T. ) ;
#129 = DIRECTION ( 'NONE',  ( 0.000000000000000000, 0.000000000000000000, 1.000000000000000000 ) ) ;
#130 = DESIGN_CONTEXT ( 'detailed design', #74, 'design' ) ;
#131 = DIRECTION ( 'NONE',  ( -1.000000000000000000, 0.000000000000000000, 0.000000000000000000 ) ) ;
#132 = DIRECTION ( 'NONE',  ( 1.000000000000000000, 1.224646799147353207E-16, 0.000000000000000000 ) ) ;
#133 = CIRCLE ( 'NONE', #50, 25.39999999998973124 ) ;
#134 = CARTESIAN_POINT ( 'NONE',  ( 0.000000000000000000, 0.000000000000000000, 0.000000000000000000 ) ) ;
#135 = CALENDAR_DATE ( 2021, 25, 2 ) ;
#136 = SECURITY_CLASSIFICATION_LEVEL ( 'unclassified' ) ;
#137 = ORGANIZATION ( 'UNSPECIFIED', 'UNSPECIFIED', '' ) ;
#138 = ADVANCED_BREP_SHAPE_REPRESENTATION ( '010-1521E_UVFS_PCV_window', ( #167, #61 ), #37 ) ;
#139 = APPROVAL_STATUS ( 'not_yet_approved' ) ;
#140 = CALENDAR_DATE ( 2021, 25, 2 ) ;
#141 = SECURITY_CLASSIFICATION ( '', '', #136 ) ;
#142 = CARTESIAN_POINT ( 'NONE',  ( -25.39999999998942570, 0.000000000000000000, 9.999999999999786837 ) ) ;
#143 = ORIENTED_EDGE ( 'NONE', *, *, #128, .T. ) ;
#144 = CARTESIAN_POINT ( 'NONE',  ( 25.39999999999004032, 3.110602869833667470E-15, 9.999999999999786837 ) ) ;
#145 = CARTESIAN_POINT ( 'NONE',  ( -25.39999999999999858, 0.000000000000000000, 10.00000000000000000 ) ) ;
#146 = DIRECTION ( 'NONE',  ( 1.000000000000000000, 0.000000000000000000, 0.000000000000000000 ) ) ;
#147 = DIRECTION ( 'NONE',  ( 0.000000000000000000, 0.000000000000000000, 1.000000000000000000 ) ) ;
#148 = PRODUCT_DEFINITION ( 'UNKNOWN', '', #52, #130 ) ;
#149 = DATE_AND_TIME ( #135, #111 ) ;
#150 = PERSON_AND_ORGANIZATION ( #173, #137 ) ;
#151 = PERSON_AND_ORGANIZATION ( #173, #137 ) ;
#152 = COORDINATED_UNIVERSAL_TIME_OFFSET ( 2, 0, .AHEAD. ) ;
#153 = AXIS2_PLACEMENT_3D ( 'NONE', #134, #147, #116 ) ;
#154 = PERSON_AND_ORGANIZATION ( #173, #137 ) ;
#155 = ORIENTED_EDGE ( 'NONE', *, *, #101, .F. ) ;
#156 = CIRCLE ( 'NONE', #103, 25.39999999999999858 ) ;
#157 = ADVANCED_FACE ( 'NONE', ( #189 ), #201, .F. ) ;
#158 = ORIENTED_EDGE ( 'NONE', *, *, #121, .F. ) ;
#159 = CARTESIAN_POINT ( 'NONE',  ( 3.087807787238716628E-13, 0.000000000000000000, 2509.870964669976729 ) ) ;
#160 =( NAMED_UNIT ( * ) PLANE_ANGLE_UNIT ( ) SI_UNIT ( $, .RADIAN. ) );
#161 = CARTESIAN_POINT ( 'NONE',  ( 3.087807787238716628E-13, 0.000000000000000000, 2509.870964669976729 ) ) ;
#162 = DIRECTION ( 'NONE',  ( 1.000000000000000000, 0.000000000000000000, 0.000000000000000000 ) ) ;
#163 = DIRECTION ( 'NONE',  ( 0.000000000000000000, 0.000000000000000000, 1.000000000000000000 ) ) ;
#164 = EDGE_CURVE ( 'NONE', #8, #46, #19, .T. ) ;
#165 = CIRCLE ( 'NONE', #25, 2500.000000000000000 ) ;
#166 = LOCAL_TIME ( 15, 33, 50.00000000000000000, #122 ) ;
#167 = MANIFOLD_SOLID_BREP ( 'Cut-Revolve1', #174 ) ;
#168 = COORDINATED_UNIVERSAL_TIME_OFFSET ( 2, 0, .AHEAD. ) ;
#169 = PERSON_AND_ORGANIZATION ( #173, #137 ) ;
#170 = APPLICATION_PROTOCOL_DEFINITION ( 'international standard', 'config_control_design', 1994, #194 ) ;
#171 = CC_DESIGN_APPROVAL ( #34, ( #52 ) ) ;
#172 = ORIENTED_EDGE ( 'NONE', *, *, #49, .T. ) ;
#173 = PERSON ( 'UNSPECIFIED', 'UNSPECIFIED', 'UNSPECIFIED', ('UNSPECIFIED'), ('UNSPECIFIED'), ('UNSPECIFIED') ) ;
#174 = CLOSED_SHELL ( 'NONE', ( #157, #35, #196, #5, #71 ) ) ;
#175 =( LENGTH_UNIT ( ) NAMED_UNIT ( * ) SI_UNIT ( .MILLI., .METRE. ) );
#176 = DIRECTION ( 'NONE',  ( 0.000000000000000000, 1.000000000000000000, -0.000000000000000000 ) ) ;
#177 = FACE_OUTER_BOUND ( 'NONE', #97, .T. ) ;
#178 = CARTESIAN_POINT ( 'NONE',  ( 25.39999999999999858, 3.110602869834276865E-15, 10.00000000000000000 ) ) ;
#179 = CC_DESIGN_APPROVAL ( #1, ( #148 ) ) ;
#180 = PERSON_AND_ORGANIZATION_ROLE ( 'design_owner' ) ;
#181 = CALENDAR_DATE ( 2021, 25, 2 ) ;
#182 = DATE_AND_TIME ( #10, #166 ) ;
#183 = PERSON_AND_ORGANIZATION ( #173, #137 ) ;
#184 = VERTEX_POINT ( 'NONE', #144 ) ;
#185 = EDGE_LOOP ( 'NONE', ( #198, #172, #96 ) ) ;
#186 = DIRECTION ( 'NONE',  ( 0.000000000000000000, 0.000000000000000000, 1.000000000000000000 ) ) ;
#187 = ORIENTED_EDGE ( 'NONE', *, *, #108, .T. ) ;
#188 = PLANE ( 'NONE',  #89 ) ;
#189 = FACE_OUTER_BOUND ( 'NONE', #185, .T. ) ;
#190 = FACE_OUTER_BOUND ( 'NONE', #48, .T. ) ;
#191 = DIRECTION ( 'NONE',  ( 1.224646799147353207E-16, -1.000000000000000000, 0.000000000000000000 ) ) ;
#192 = DIRECTION ( 'NONE',  ( -0.000000000000000000, -0.000000000000000000, -1.000000000000000000 ) ) ;
#193 = SHAPE_DEFINITION_REPRESENTATION ( #57, #138 ) ;
#194 = APPLICATION_CONTEXT ( 'configuration controlled 3d designs of mechanical parts and assemblies' ) ;
#195 = APPROVAL_ROLE ( '' ) ;
#196 = ADVANCED_FACE ( 'NONE', ( #190 ), #85, .T. ) ;
#197 = APPROVAL_ROLE ( '' ) ;
#198 = ORIENTED_EDGE ( 'NONE', *, *, #27, .F. ) ;
#199 = ORIENTED_EDGE ( 'NONE', *, *, #54, .T. ) ;
#200 = FACE_OUTER_BOUND ( 'NONE', #62, .T. ) ;
#201 = SPHERICAL_SURFACE ( 'NONE', #55, 2500.000000000000000 ) ;
ENDSEC;
END-ISO-10303-21;
