ISO-10303-21;
HEADER;
FILE_DESCRIPTION (( 'STEP AP203' ),
    '1' );
FILE_NAME ('010-1520E_UVFS_PCV_window.STEP',
    '2021-02-25T13:33:26',
    ( '' ),
    ( '' ),
    'SwSTEP 2.0',
    'SolidWorks 2019',
    '' );
FILE_SCHEMA (( 'CONFIG_CONTROL_DESIGN' ));
ENDSEC;

DATA;
#1 = PRODUCT_DEFINITION ( 'UNKNOWN', '', #183, #148 ) ;
#2 = DIRECTION ( 'NONE',  ( -0.000000000000000000, -0.000000000000000000, -1.000000000000000000 ) ) ;
#3 = CIRCLE ( 'NONE', #152, 25.40000000002469704 ) ;
#4 = CYLINDRICAL_SURFACE ( 'NONE', #56, 25.39999999999999858 ) ;
#5 = EDGE_CURVE ( 'NONE', #19, #132, #3, .T. ) ;
#6 = CARTESIAN_POINT ( 'NONE',  ( -25.39999999999999858, 0.000000000000000000, 0.000000000000000000 ) ) ;
#7 = SPHERICAL_SURFACE ( 'NONE', #60, 2000.000000000000000 ) ;
#8 = DIRECTION ( 'NONE',  ( 0.000000000000000000, 0.000000000000000000, 1.000000000000000000 ) ) ;
#9 = UNCERTAINTY_MEASURE_WITH_UNIT (LENGTH_MEASURE( 1.000000000000000082E-05 ), #173, 'distance_accuracy_value', 'NONE');
#10 = LOCAL_TIME ( 15, 33, 26.00000000000000000, #62 ) ;
#11 = APPROVAL_ROLE ( '' ) ;
#12 = PERSON_AND_ORGANIZATION_ROLE ( 'design_supplier' ) ;
#13 = PERSON_AND_ORGANIZATION ( #167, #180 ) ;
#14 = EDGE_LOOP ( 'NONE', ( #105, #78 ) ) ;
#15 = VERTEX_POINT ( 'NONE', #6 ) ;
#16 = CIRCLE ( 'NONE', #85, 2000.000000000000000 ) ;
#17 = ORIENTED_EDGE ( 'NONE', *, *, #70, .T. ) ;
#18 = ORIENTED_EDGE ( 'NONE', *, *, #33, .F. ) ;
#19 = VERTEX_POINT ( 'NONE', #68 ) ;
#20 = CLOSED_SHELL ( 'NONE', ( #119, #195, #91, #110, #165 ) ) ;
#21 = FACE_OUTER_BOUND ( 'NONE', #14, .T. ) ;
#22 = EDGE_CURVE ( 'NONE', #199, #15, #31, .T. ) ;
#23 = CARTESIAN_POINT ( 'NONE',  ( 2.498001805406602216E-13, 0.000000000000000000, 2009.838703495859136 ) ) ;
#24 = CARTESIAN_POINT ( 'NONE',  ( 2.498001805406602216E-13, 0.000000000000000000, 2009.838703495859136 ) ) ;
#25 = CARTESIAN_POINT ( 'NONE',  ( 25.39999999999999858, 3.110602869834276865E-15, 0.000000000000000000 ) ) ;
#26 = PERSON_AND_ORGANIZATION_ROLE ( 'creator' ) ;
#27 = APPLICATION_PROTOCOL_DEFINITION ( 'international standard', 'config_control_design', 1994, #159 ) ;
#28 = SECURITY_CLASSIFICATION_LEVEL ( 'unclassified' ) ;
#29 = CC_DESIGN_APPROVAL ( #137, ( #141 ) ) ;
#30 = COORDINATED_UNIVERSAL_TIME_OFFSET ( 2, 0, .AHEAD. ) ;
#31 = CIRCLE ( 'NONE', #101, 25.39999999999999858 ) ;
#32 = PRODUCT_RELATED_PRODUCT_CATEGORY ( 'detail', '', ( #161 ) ) ;
#33 = EDGE_CURVE ( 'NONE', #19, #199, #98, .T. ) ;
#34 = CARTESIAN_POINT ( 'NONE',  ( 0.000000000000000000, 0.000000000000000000, 0.000000000000000000 ) ) ;
#35 = CC_DESIGN_APPROVAL ( #58, ( #183 ) ) ;
#36 = PLANE ( 'NONE',  #49 ) ;
#37 = FACE_OUTER_BOUND ( 'NONE', #76, .T. ) ;
#38 = DIRECTION ( 'NONE',  ( 0.000000000000000000, 0.000000000000000000, 1.000000000000000000 ) ) ;
#39 = CC_DESIGN_SECURITY_CLASSIFICATION ( #141, ( #183 ) ) ;
#40 = PERSON_AND_ORGANIZATION ( #167, #180 ) ;
#41 = CALENDAR_DATE ( 2021, 25, 2 ) ;
#42 = PRODUCT_DEFINITION_SHAPE ( 'NONE', 'NONE',  #1 ) ;
#43 = CC_DESIGN_DATE_AND_TIME_ASSIGNMENT ( #126, #181, ( #1 ) ) ;
#44 = CIRCLE ( 'NONE', #182, 25.40000000002469704 ) ;
#45 = DATE_AND_TIME ( #41, #130 ) ;
#46 = EDGE_CURVE ( 'NONE', #132, #47, #136, .T. ) ;
#47 = VERTEX_POINT ( 'NONE', #111 ) ;
#48 = ORIENTED_EDGE ( 'NONE', *, *, #187, .T. ) ;
#49 = AXIS2_PLACEMENT_3D ( 'NONE', #112, #8, #67 ) ;
#50 = CARTESIAN_POINT ( 'NONE',  ( 25.39999999999999858, 3.110602869834276865E-15, 10.00000000000000000 ) ) ;
#51 = LOCAL_TIME ( 15, 33, 26.00000000000000000, #179 ) ;
#52 = FACE_OUTER_BOUND ( 'NONE', #147, .T. ) ;
#53 = DIRECTION ( 'NONE',  ( 0.000000000000000000, -1.000000000000000000, -0.000000000000000000 ) ) ;
#54 = APPROVAL ( #115, 'UNSPECIFIED' ) ;
#55 = CYLINDRICAL_SURFACE ( 'NONE', #95, 25.39999999999999858 ) ;
#56 = AXIS2_PLACEMENT_3D ( 'NONE', #96, #176, #158 ) ;
#57 = CALENDAR_DATE ( 2021, 25, 2 ) ;
#58 = APPROVAL ( #160, 'UNSPECIFIED' ) ;
#59 = SHAPE_DEFINITION_REPRESENTATION ( #42, #127 ) ;
#60 = AXIS2_PLACEMENT_3D ( 'NONE', #134, #109, #157 ) ;
#61 = MECHANICAL_CONTEXT ( 'NONE', #159, 'mechanical' ) ;
#62 = COORDINATED_UNIVERSAL_TIME_OFFSET ( 2, 0, .AHEAD. ) ;
#63 = DIRECTION ( 'NONE',  ( 1.000000000000000000, 0.000000000000000000, 0.000000000000000000 ) ) ;
#64 =( NAMED_UNIT ( * ) SI_UNIT ( $, .STERADIAN. ) SOLID_ANGLE_UNIT ( ) );
#65 = AXIS2_PLACEMENT_3D ( 'NONE', #174, #80, #69 ) ;
#66 = CC_DESIGN_PERSON_AND_ORGANIZATION_ASSIGNMENT ( #87, #125, ( #141 ) ) ;
#67 = DIRECTION ( 'NONE',  ( 1.000000000000000000, 0.000000000000000000, -0.000000000000000000 ) ) ;
#68 = CARTESIAN_POINT ( 'NONE',  ( 25.40000000002495284, 3.110602869837332912E-15, 10.00000000000000888 ) ) ;
#69 = DIRECTION ( 'NONE',  ( 1.000000000000000000, 0.000000000000000000, 0.000000000000000000 ) ) ;
#70 = EDGE_CURVE ( 'NONE', #15, #199, #163, .T. ) ;
#71 = APPROVAL_PERSON_ORGANIZATION ( #72, #54, #177 ) ;
#72 = PERSON_AND_ORGANIZATION ( #167, #180 ) ;
#73 = PERSON_AND_ORGANIZATION ( #167, #180 ) ;
#74 = ORIENTED_EDGE ( 'NONE', *, *, #5, .T. ) ;
#75 = DIRECTION ( 'NONE',  ( 0.000000000000000000, 0.000000000000000000, 1.000000000000000000 ) ) ;
#76 = EDGE_LOOP ( 'NONE', ( #116, #149, #185 ) ) ;
#77 = ORIENTED_EDGE ( 'NONE', *, *, #46, .F. ) ;
#78 = ORIENTED_EDGE ( 'NONE', *, *, #22, .F. ) ;
#79 = SPHERICAL_SURFACE ( 'NONE', #89, 2000.000000000000000 ) ;
#80 = DIRECTION ( 'NONE',  ( 0.000000000000000000, 0.000000000000000000, 1.000000000000000000 ) ) ;
#81 = DIRECTION ( 'NONE',  ( -1.000000000000000000, 0.000000000000000000, 0.000000000000000000 ) ) ;
#82 = DIRECTION ( 'NONE',  ( 1.000000000000000000, 0.000000000000000000, 0.000000000000000000 ) ) ;
#83 = DIRECTION ( 'NONE',  ( -0.000000000000000000, -0.000000000000000000, -1.000000000000000000 ) ) ;
#84 = DATE_TIME_ROLE ( 'classification_date' ) ;
#85 = AXIS2_PLACEMENT_3D ( 'NONE', #24, #120, #175 ) ;
#86 = PERSON_AND_ORGANIZATION ( #167, #180 ) ;
#87 = PERSON_AND_ORGANIZATION ( #167, #180 ) ;
#88 = CALENDAR_DATE ( 2021, 25, 2 ) ;
#89 = AXIS2_PLACEMENT_3D ( 'NONE', #188, #53, #113 ) ;
#90 = ORIENTED_EDGE ( 'NONE', *, *, #187, .F. ) ;
#91 = ADVANCED_FACE ( 'NONE', ( #135 ), #55, .T. ) ;
#92 = ORIENTED_EDGE ( 'NONE', *, *, #22, .T. ) ;
#93 = DIRECTION ( 'NONE',  ( 1.224646799147353207E-16, -1.000000000000000000, 0.000000000000000000 ) ) ;
#94 = APPROVAL_PERSON_ORGANIZATION ( #73, #58, #201 ) ;
#95 = AXIS2_PLACEMENT_3D ( 'NONE', #139, #122, #81 ) ;
#96 = CARTESIAN_POINT ( 'NONE',  ( 0.000000000000000000, 0.000000000000000000, 10.00000000000000000 ) ) ;
#97 = CARTESIAN_POINT ( 'NONE',  ( -25.40000000002444835, 0.000000000000000000, 10.00000000000000888 ) ) ;
#98 = LINE ( 'NONE', #50, #197 ) ;
#99 = EDGE_CURVE ( 'NONE', #132, #19, #44, .T. ) ;
#100 = PERSON_AND_ORGANIZATION_ROLE ( 'creator' ) ;
#101 = AXIS2_PLACEMENT_3D ( 'NONE', #34, #38, #82 ) ;
#102 = CALENDAR_DATE ( 2021, 25, 2 ) ;
#103 = CC_DESIGN_PERSON_AND_ORGANIZATION_ASSIGNMENT ( #86, #178, ( #161 ) ) ;
#104 = PERSON_AND_ORGANIZATION ( #167, #180 ) ;
#105 = ORIENTED_EDGE ( 'NONE', *, *, #70, .F. ) ;
#106 = ORIENTED_EDGE ( 'NONE', *, *, #99, .T. ) ;
#107 =( GEOMETRIC_REPRESENTATION_CONTEXT ( 3 ) GLOBAL_UNCERTAINTY_ASSIGNED_CONTEXT ( ( #9 ) ) GLOBAL_UNIT_ASSIGNED_CONTEXT ( ( #173, #154, #64 ) ) REPRESENTATION_CONTEXT ( 'NONE', 'WORKASPACE' ) );
#108 = ORIENTED_EDGE ( 'NONE', *, *, #124, .T. ) ;
#109 = DIRECTION ( 'NONE',  ( 0.000000000000000000, -1.000000000000000000, -0.000000000000000000 ) ) ;
#110 = ADVANCED_FACE ( 'NONE', ( #21 ), #36, .F. ) ;
#111 = CARTESIAN_POINT ( 'NONE',  ( 3.722648604553955717E-13, 0.000000000000000000, 9.838703495859135728 ) ) ;
#112 = CARTESIAN_POINT ( 'NONE',  ( 0.000000000000000000, 0.000000000000000000, 0.000000000000000000 ) ) ;
#113 = DIRECTION ( 'NONE',  ( 1.000000000000000000, 0.000000000000000000, 0.000000000000000000 ) ) ;
#114 = PERSON_AND_ORGANIZATION ( #167, #180 ) ;
#115 = APPROVAL_STATUS ( 'not_yet_approved' ) ;
#116 = ORIENTED_EDGE ( 'NONE', *, *, #99, .F. ) ;
#117 = AXIS2_PLACEMENT_3D ( 'NONE', #184, #75, #140 ) ;
#118 = CARTESIAN_POINT ( 'NONE',  ( 2.498001805406602216E-13, 0.000000000000000000, 10.00000000000000888 ) ) ;
#119 = ADVANCED_FACE ( 'NONE', ( #37 ), #79, .F. ) ;
#120 = DIRECTION ( 'NONE',  ( 0.000000000000000000, 1.000000000000000000, -0.000000000000000000 ) ) ;
#121 = LOCAL_TIME ( 15, 33, 26.00000000000000000, #142 ) ;
#122 = DIRECTION ( 'NONE',  ( -0.000000000000000000, -0.000000000000000000, -1.000000000000000000 ) ) ;
#123 = LINE ( 'NONE', #155, #169 ) ;
#124 = EDGE_CURVE ( 'NONE', #19, #47, #16, .T. ) ;
#125 = PERSON_AND_ORGANIZATION_ROLE ( 'classification_officer' ) ;
#126 = DATE_AND_TIME ( #102, #121 ) ;
#127 = ADVANCED_BREP_SHAPE_REPRESENTATION ( '010-1520E_UVFS_PCV_window', ( #144, #117 ), #107 ) ;
#128 = CC_DESIGN_PERSON_AND_ORGANIZATION_ASSIGNMENT ( #114, #12, ( #183 ) ) ;
#129 = CALENDAR_DATE ( 2021, 25, 2 ) ;
#130 = LOCAL_TIME ( 15, 33, 26.00000000000000000, #196 ) ;
#131 = CC_DESIGN_PERSON_AND_ORGANIZATION_ASSIGNMENT ( #40, #100, ( #1 ) ) ;
#132 = VERTEX_POINT ( 'NONE', #97 ) ;
#133 = ORIENTED_EDGE ( 'NONE', *, *, #33, .T. ) ;
#134 = CARTESIAN_POINT ( 'NONE',  ( 2.498001805406602216E-13, 0.000000000000000000, 2009.838703495859136 ) ) ;
#135 = FACE_OUTER_BOUND ( 'NONE', #150, .T. ) ;
#136 = CIRCLE ( 'NONE', #186, 2000.000000000000000 ) ;
#137 = APPROVAL ( #168, 'UNSPECIFIED' ) ;
#138 = DIRECTION ( 'NONE',  ( 1.000000000000000000, 0.000000000000000000, 0.000000000000000000 ) ) ;
#139 = CARTESIAN_POINT ( 'NONE',  ( 0.000000000000000000, 0.000000000000000000, 10.00000000000000000 ) ) ;
#140 = DIRECTION ( 'NONE',  ( 1.000000000000000000, 0.000000000000000000, 0.000000000000000000 ) ) ;
#141 = SECURITY_CLASSIFICATION ( '', '', #28 ) ;
#142 = COORDINATED_UNIVERSAL_TIME_OFFSET ( 2, 0, .AHEAD. ) ;
#143 = APPLICATION_PROTOCOL_DEFINITION ( 'international standard', 'config_control_design', 1994, #156 ) ;
#144 = MANIFOLD_SOLID_BREP ( 'Cut-Revolve1', #20 ) ;
#145 = CC_DESIGN_DATE_AND_TIME_ASSIGNMENT ( #45, #84, ( #141 ) ) ;
#146 = DATE_AND_TIME ( #129, #172 ) ;
#147 = EDGE_LOOP ( 'NONE', ( #77, #170, #108 ) ) ;
#148 = DESIGN_CONTEXT ( 'detailed design', #156, 'design' ) ;
#149 = ORIENTED_EDGE ( 'NONE', *, *, #46, .T. ) ;
#150 = EDGE_LOOP ( 'NONE', ( #18, #74, #48, #17 ) ) ;
#151 = EDGE_LOOP ( 'NONE', ( #106, #133, #92, #90 ) ) ;
#152 = AXIS2_PLACEMENT_3D ( 'NONE', #118, #2, #63 ) ;
#153 = DIRECTION ( 'NONE',  ( -0.000000000000000000, -0.000000000000000000, -1.000000000000000000 ) ) ;
#154 =( NAMED_UNIT ( * ) PLANE_ANGLE_UNIT ( ) SI_UNIT ( $, .RADIAN. ) );
#155 = CARTESIAN_POINT ( 'NONE',  ( -25.39999999999999858, 0.000000000000000000, 10.00000000000000000 ) ) ;
#156 = APPLICATION_CONTEXT ( 'configuration controlled 3d designs of mechanical parts and assemblies' ) ;
#157 = DIRECTION ( 'NONE',  ( 1.000000000000000000, 0.000000000000000000, 0.000000000000000000 ) ) ;
#158 = DIRECTION ( 'NONE',  ( -1.000000000000000000, 0.000000000000000000, 0.000000000000000000 ) ) ;
#159 = APPLICATION_CONTEXT ( 'configuration controlled 3d designs of mechanical parts and assemblies' ) ;
#160 = APPROVAL_STATUS ( 'not_yet_approved' ) ;
#161 = PRODUCT ( '010-1520E_UVFS_PCV_window', '010-1520E_UVFS_PCV_window', '', ( #61 ) ) ;
#162 = APPROVAL_DATE_TIME ( #193, #54 ) ;
#163 = CIRCLE ( 'NONE', #65, 25.39999999999999858 ) ;
#164 = APPROVAL_DATE_TIME ( #146, #58 ) ;
#165 = ADVANCED_FACE ( 'NONE', ( #52 ), #7, .F. ) ;
#166 = APPROVAL_DATE_TIME ( #194, #137 ) ;
#167 = PERSON ( 'UNSPECIFIED', 'UNSPECIFIED', 'UNSPECIFIED', ('UNSPECIFIED'), ('UNSPECIFIED'), ('UNSPECIFIED') ) ;
#168 = APPROVAL_STATUS ( 'not_yet_approved' ) ;
#169 = VECTOR ( 'NONE', #192, 1000.000000000000000 ) ;
#170 = ORIENTED_EDGE ( 'NONE', *, *, #5, .F. ) ;
#171 = FACE_OUTER_BOUND ( 'NONE', #151, .T. ) ;
#172 = LOCAL_TIME ( 15, 33, 26.00000000000000000, #30 ) ;
#173 =( LENGTH_UNIT ( ) NAMED_UNIT ( * ) SI_UNIT ( .MILLI., .METRE. ) );
#174 = CARTESIAN_POINT ( 'NONE',  ( 0.000000000000000000, 0.000000000000000000, 0.000000000000000000 ) ) ;
#175 = DIRECTION ( 'NONE',  ( 0.000000000000000000, 0.000000000000000000, 1.000000000000000000 ) ) ;
#176 = DIRECTION ( 'NONE',  ( -0.000000000000000000, -0.000000000000000000, -1.000000000000000000 ) ) ;
#177 = APPROVAL_ROLE ( '' ) ;
#178 = PERSON_AND_ORGANIZATION_ROLE ( 'design_owner' ) ;
#179 = COORDINATED_UNIVERSAL_TIME_OFFSET ( 2, 0, .AHEAD. ) ;
#180 = ORGANIZATION ( 'UNSPECIFIED', 'UNSPECIFIED', '' ) ;
#181 = DATE_TIME_ROLE ( 'creation_date' ) ;
#182 = AXIS2_PLACEMENT_3D ( 'NONE', #189, #153, #138 ) ;
#183 = PRODUCT_DEFINITION_FORMATION_WITH_SPECIFIED_SOURCE ( 'ANY', '', #161, .NOT_KNOWN. ) ;
#184 = CARTESIAN_POINT ( 'NONE',  ( 0.000000000000000000, 0.000000000000000000, 0.000000000000000000 ) ) ;
#185 = ORIENTED_EDGE ( 'NONE', *, *, #124, .F. ) ;
#186 = AXIS2_PLACEMENT_3D ( 'NONE', #23, #93, #191 ) ;
#187 = EDGE_CURVE ( 'NONE', #132, #15, #123, .T. ) ;
#188 = CARTESIAN_POINT ( 'NONE',  ( 2.498001805406602216E-13, 0.000000000000000000, 2009.838703495859136 ) ) ;
#189 = CARTESIAN_POINT ( 'NONE',  ( 2.498001805406602216E-13, 0.000000000000000000, 10.00000000000000888 ) ) ;
#190 = CC_DESIGN_APPROVAL ( #54, ( #1 ) ) ;
#191 = DIRECTION ( 'NONE',  ( 1.000000000000000000, 1.224646799147353207E-16, 0.000000000000000000 ) ) ;
#192 = DIRECTION ( 'NONE',  ( -0.000000000000000000, -0.000000000000000000, -1.000000000000000000 ) ) ;
#193 = DATE_AND_TIME ( #57, #51 ) ;
#194 = DATE_AND_TIME ( #88, #10 ) ;
#195 = ADVANCED_FACE ( 'NONE', ( #171 ), #4, .T. ) ;
#196 = COORDINATED_UNIVERSAL_TIME_OFFSET ( 2, 0, .AHEAD. ) ;
#197 = VECTOR ( 'NONE', #83, 1000.000000000000000 ) ;
#198 = CC_DESIGN_PERSON_AND_ORGANIZATION_ASSIGNMENT ( #13, #26, ( #183 ) ) ;
#199 = VERTEX_POINT ( 'NONE', #25 ) ;
#200 = APPROVAL_PERSON_ORGANIZATION ( #104, #137, #11 ) ;
#201 = APPROVAL_ROLE ( '' ) ;
ENDSEC;
END-ISO-10303-21;
