ISO-10303-21;
HEADER;
FILE_DESCRIPTION (( 'STEP AP203' ),
    '1' );
FILE_NAME ('010-1515E_UVFS_PCV_window.STEP',
    '2021-02-25T13:32:27',
    ( '' ),
    ( '' ),
    'SwSTEP 2.0',
    'SolidWorks 2019',
    '' );
FILE_SCHEMA (( 'CONFIG_CONTROL_DESIGN' ));
ENDSEC;

DATA;
#1 = CC_DESIGN_PERSON_AND_ORGANIZATION_ASSIGNMENT ( #58, #41, ( #27 ) ) ;
#2 = AXIS2_PLACEMENT_3D ( 'NONE', #174, #189, #52 ) ;
#3 = PERSON_AND_ORGANIZATION ( #71, #182 ) ;
#4 = DIRECTION ( 'NONE',  ( 1.000000000000000000, 0.000000000000000000, 0.000000000000000000 ) ) ;
#5 = EDGE_CURVE ( 'NONE', #151, #19, #53, .T. ) ;
#6 = CARTESIAN_POINT ( 'NONE',  ( 1.249000902703301108E-13, 0.000000000000000000, 1009.677367954281408 ) ) ;
#7 =( GEOMETRIC_REPRESENTATION_CONTEXT ( 3 ) GLOBAL_UNCERTAINTY_ASSIGNED_CONTEXT ( ( #109 ) ) GLOBAL_UNIT_ASSIGNED_CONTEXT ( ( #141, #201, #117 ) ) REPRESENTATION_CONTEXT ( 'NONE', 'WORKASPACE' ) );
#8 = ORIENTED_EDGE ( 'NONE', *, *, #158, .T. ) ;
#9 = FACE_OUTER_BOUND ( 'NONE', #149, .T. ) ;
#10 = CALENDAR_DATE ( 2021, 25, 2 ) ;
#11 = ORIENTED_EDGE ( 'NONE', *, *, #5, .F. ) ;
#12 = APPROVAL_ROLE ( '' ) ;
#13 = CALENDAR_DATE ( 2021, 25, 2 ) ;
#14 = DIRECTION ( 'NONE',  ( 1.000000000000000000, 0.000000000000000000, 0.000000000000000000 ) ) ;
#15 = APPLICATION_PROTOCOL_DEFINITION ( 'international standard', 'config_control_design', 1994, #197 ) ;
#16 = CARTESIAN_POINT ( 'NONE',  ( 0.000000000000000000, 0.000000000000000000, 0.000000000000000000 ) ) ;
#17 = FACE_OUTER_BOUND ( 'NONE', #72, .T. ) ;
#18 = CARTESIAN_POINT ( 'NONE',  ( -25.40000000000053149, 0.000000000000000000, 10.00000000000000888 ) ) ;
#19 = VERTEX_POINT ( 'NONE', #120 ) ;
#20 = COORDINATED_UNIVERSAL_TIME_OFFSET ( 2, 0, .AHEAD. ) ;
#21 = EDGE_LOOP ( 'NONE', ( #70, #100 ) ) ;
#22 = DATE_AND_TIME ( #153, #135 ) ;
#23 = AXIS2_PLACEMENT_3D ( 'NONE', #16, #34, #80 ) ;
#24 = PERSON_AND_ORGANIZATION ( #71, #182 ) ;
#25 = PRODUCT_DEFINITION_SHAPE ( 'NONE', 'NONE',  #200 ) ;
#26 = ADVANCED_FACE ( 'NONE', ( #9 ), #39, .T. ) ;
#27 = PRODUCT_DEFINITION_FORMATION_WITH_SPECIFIED_SOURCE ( 'ANY', '', #124, .NOT_KNOWN. ) ;
#28 = CARTESIAN_POINT ( 'NONE',  ( -25.39999999999999858, 0.000000000000000000, 0.000000000000000000 ) ) ;
#29 = DIRECTION ( 'NONE',  ( -0.000000000000000000, -0.000000000000000000, -1.000000000000000000 ) ) ;
#30 = CC_DESIGN_PERSON_AND_ORGANIZATION_ASSIGNMENT ( #193, #152, ( #57 ) ) ;
#31 = ADVANCED_FACE ( 'NONE', ( #55 ), #33, .F. ) ;
#32 = PERSON_AND_ORGANIZATION ( #71, #182 ) ;
#33 = PLANE ( 'NONE',  #2 ) ;
#34 = DIRECTION ( 'NONE',  ( 0.000000000000000000, 0.000000000000000000, 1.000000000000000000 ) ) ;
#35 = DIRECTION ( 'NONE',  ( 0.000000000000000000, 0.000000000000000000, 1.000000000000000000 ) ) ;
#36 = VERTEX_POINT ( 'NONE', #18 ) ;
#37 = APPROVAL ( #138, 'UNSPECIFIED' ) ;
#38 = ORIENTED_EDGE ( 'NONE', *, *, #54, .T. ) ;
#39 = CYLINDRICAL_SURFACE ( 'NONE', #62, 25.39999999999999858 ) ;
#40 = CC_DESIGN_APPROVAL ( #37, ( #27 ) ) ;
#41 = PERSON_AND_ORGANIZATION_ROLE ( 'creator' ) ;
#42 = DATE_TIME_ROLE ( 'classification_date' ) ;
#43 = AXIS2_PLACEMENT_3D ( 'NONE', #96, #35, #144 ) ;
#44 = ORIENTED_EDGE ( 'NONE', *, *, #68, .T. ) ;
#45 = CARTESIAN_POINT ( 'NONE',  ( 1.249000902703301108E-13, 0.000000000000000000, 1009.677367954281408 ) ) ;
#46 = DIRECTION ( 'NONE',  ( 1.000000000000000000, 0.000000000000000000, 0.000000000000000000 ) ) ;
#47 = CC_DESIGN_PERSON_AND_ORGANIZATION_ASSIGNMENT ( #181, #74, ( #27 ) ) ;
#48 = EDGE_CURVE ( 'NONE', #139, #19, #157, .T. ) ;
#49 = CIRCLE ( 'NONE', #118, 25.40000000000065938 ) ;
#50 = CARTESIAN_POINT ( 'NONE',  ( -25.39999999999999858, 0.000000000000000000, 10.00000000000000000 ) ) ;
#51 = APPROVAL_STATUS ( 'not_yet_approved' ) ;
#52 = DIRECTION ( 'NONE',  ( 1.000000000000000000, 0.000000000000000000, -0.000000000000000000 ) ) ;
#53 = LINE ( 'NONE', #194, #178 ) ;
#54 = EDGE_CURVE ( 'NONE', #19, #139, #59, .T. ) ;
#55 = FACE_OUTER_BOUND ( 'NONE', #21, .T. ) ;
#56 = DATE_AND_TIME ( #106, #94 ) ;
#57 = SECURITY_CLASSIFICATION ( '', '', #102 ) ;
#58 = PERSON_AND_ORGANIZATION ( #71, #182 ) ;
#59 = CIRCLE ( 'NONE', #43, 25.39999999999999858 ) ;
#60 = ADVANCED_BREP_SHAPE_REPRESENTATION ( '010-1515E_UVFS_PCV_window', ( #170, #23 ), #7 ) ;
#61 = CARTESIAN_POINT ( 'NONE',  ( 1.249000902703301108E-13, 0.000000000000000000, 10.00000000000000888 ) ) ;
#62 = AXIS2_PLACEMENT_3D ( 'NONE', #150, #167, #137 ) ;
#63 = CYLINDRICAL_SURFACE ( 'NONE', #142, 25.39999999999999858 ) ;
#64 = PERSON_AND_ORGANIZATION_ROLE ( 'design_owner' ) ;
#65 = DIRECTION ( 'NONE',  ( 1.000000000000000000, 0.000000000000000000, 0.000000000000000000 ) ) ;
#66 = CARTESIAN_POINT ( 'NONE',  ( 1.249000902703301108E-13, 0.000000000000000000, 10.00000000000000888 ) ) ;
#67 = CIRCLE ( 'NONE', #190, 25.40000000000065938 ) ;
#68 = EDGE_CURVE ( 'NONE', #151, #184, #147, .T. ) ;
#69 = ORIENTED_EDGE ( 'NONE', *, *, #90, .F. ) ;
#70 = ORIENTED_EDGE ( 'NONE', *, *, #48, .F. ) ;
#71 = PERSON ( 'UNSPECIFIED', 'UNSPECIFIED', 'UNSPECIFIED', ('UNSPECIFIED'), ('UNSPECIFIED'), ('UNSPECIFIED') ) ;
#72 = EDGE_LOOP ( 'NONE', ( #136, #73, #38, #176 ) ) ;
#73 = ORIENTED_EDGE ( 'NONE', *, *, #5, .T. ) ;
#74 = PERSON_AND_ORGANIZATION_ROLE ( 'design_supplier' ) ;
#75 = CC_DESIGN_APPROVAL ( #164, ( #200 ) ) ;
#76 = DIRECTION ( 'NONE',  ( 0.000000000000000000, -1.000000000000000000, -0.000000000000000000 ) ) ;
#77 = AXIS2_PLACEMENT_3D ( 'NONE', #6, #119, #175 ) ;
#78 = DATE_AND_TIME ( #159, #169 ) ;
#79 = AXIS2_PLACEMENT_3D ( 'NONE', #82, #161, #98 ) ;
#80 = DIRECTION ( 'NONE',  ( 1.000000000000000000, 0.000000000000000000, 0.000000000000000000 ) ) ;
#81 = CARTESIAN_POINT ( 'NONE',  ( 0.000000000000000000, 0.000000000000000000, 10.00000000000000000 ) ) ;
#82 = CARTESIAN_POINT ( 'NONE',  ( 1.249000902703301108E-13, 0.000000000000000000, 1009.677367954281408 ) ) ;
#83 = EDGE_CURVE ( 'NONE', #36, #184, #115, .T. ) ;
#84 = CLOSED_SHELL ( 'NONE', ( #191, #99, #26, #31, #130 ) ) ;
#85 = DIRECTION ( 'NONE',  ( -0.000000000000000000, -0.000000000000000000, -1.000000000000000000 ) ) ;
#86 = EDGE_LOOP ( 'NONE', ( #69, #101, #192 ) ) ;
#87 = APPROVAL_DATE_TIME ( #122, #145 ) ;
#88 = APPROVAL_ROLE ( '' ) ;
#89 = PRODUCT_RELATED_PRODUCT_CATEGORY ( 'detail', '', ( #124 ) ) ;
#90 = EDGE_CURVE ( 'NONE', #36, #151, #49, .T. ) ;
#91 = CARTESIAN_POINT ( 'NONE',  ( 1.249000902703301108E-13, 0.000000000000000000, 1009.677367954281408 ) ) ;
#92 = FACE_OUTER_BOUND ( 'NONE', #105, .T. ) ;
#93 = FACE_OUTER_BOUND ( 'NONE', #86, .T. ) ;
#94 = LOCAL_TIME ( 15, 32, 27.00000000000000000, #196 ) ;
#95 = APPROVAL_ROLE ( '' ) ;
#96 = CARTESIAN_POINT ( 'NONE',  ( 0.000000000000000000, 0.000000000000000000, 0.000000000000000000 ) ) ;
#97 = COORDINATED_UNIVERSAL_TIME_OFFSET ( 2, 0, .AHEAD. ) ;
#98 = DIRECTION ( 'NONE',  ( 1.000000000000000000, 1.224646799147353207E-16, 0.000000000000000000 ) ) ;
#99 = ADVANCED_FACE ( 'NONE', ( #17 ), #63, .T. ) ;
#100 = ORIENTED_EDGE ( 'NONE', *, *, #54, .F. ) ;
#101 = ORIENTED_EDGE ( 'NONE', *, *, #83, .T. ) ;
#102 = SECURITY_CLASSIFICATION_LEVEL ( 'unclassified' ) ;
#103 = APPROVAL_PERSON_ORGANIZATION ( #125, #37, #88 ) ;
#104 = ORIENTED_EDGE ( 'NONE', *, *, #110, .T. ) ;
#105 = EDGE_LOOP ( 'NONE', ( #121, #177, #44 ) ) ;
#106 = CALENDAR_DATE ( 2021, 25, 2 ) ;
#107 = DATE_AND_TIME ( #13, #131 ) ;
#108 = APPROVAL_PERSON_ORGANIZATION ( #32, #164, #95 ) ;
#109 = UNCERTAINTY_MEASURE_WITH_UNIT (LENGTH_MEASURE( 1.000000000000000082E-05 ), #141, 'distance_accuracy_value', 'NONE');
#110 = EDGE_CURVE ( 'NONE', #36, #139, #134, .T. ) ;
#111 = CC_DESIGN_SECURITY_CLASSIFICATION ( #57, ( #27 ) ) ;
#112 = DIRECTION ( 'NONE',  ( 1.000000000000000000, 0.000000000000000000, 0.000000000000000000 ) ) ;
#113 = SPHERICAL_SURFACE ( 'NONE', #186, 999.9999999999998863 ) ;
#114 = APPLICATION_CONTEXT ( 'configuration controlled 3d designs of mechanical parts and assemblies' ) ;
#115 = CIRCLE ( 'NONE', #79, 999.9999999999998863 ) ;
#116 = CARTESIAN_POINT ( 'NONE',  ( 0.000000000000000000, 0.000000000000000000, 0.000000000000000000 ) ) ;
#117 =( NAMED_UNIT ( * ) SI_UNIT ( $, .STERADIAN. ) SOLID_ANGLE_UNIT ( ) );
#118 = AXIS2_PLACEMENT_3D ( 'NONE', #66, #146, #65 ) ;
#119 = DIRECTION ( 'NONE',  ( 0.000000000000000000, 1.000000000000000000, -0.000000000000000000 ) ) ;
#120 = CARTESIAN_POINT ( 'NONE',  ( 25.39999999999999858, 3.110602869834276865E-15, 0.000000000000000000 ) ) ;
#121 = ORIENTED_EDGE ( 'NONE', *, *, #83, .F. ) ;
#122 = DATE_AND_TIME ( #10, #127 ) ;
#123 = SHAPE_DEFINITION_REPRESENTATION ( #25, #60 ) ;
#124 = PRODUCT ( '010-1515E_UVFS_PCV_window', '010-1515E_UVFS_PCV_window', '', ( #160 ) ) ;
#125 = PERSON_AND_ORGANIZATION ( #71, #182 ) ;
#126 = CC_DESIGN_PERSON_AND_ORGANIZATION_ASSIGNMENT ( #132, #64, ( #124 ) ) ;
#127 = LOCAL_TIME ( 15, 32, 27.00000000000000000, #20 ) ;
#128 = DIRECTION ( 'NONE',  ( 0.000000000000000000, -1.000000000000000000, -0.000000000000000000 ) ) ;
#129 = CC_DESIGN_PERSON_AND_ORGANIZATION_ASSIGNMENT ( #3, #168, ( #200 ) ) ;
#130 = ADVANCED_FACE ( 'NONE', ( #92 ), #172, .F. ) ;
#131 = LOCAL_TIME ( 15, 32, 27.00000000000000000, #140 ) ;
#132 = PERSON_AND_ORGANIZATION ( #71, #182 ) ;
#133 = DIRECTION ( 'NONE',  ( -0.000000000000000000, -0.000000000000000000, -1.000000000000000000 ) ) ;
#134 = LINE ( 'NONE', #50, #173 ) ;
#135 = LOCAL_TIME ( 15, 32, 27.00000000000000000, #180 ) ;
#136 = ORIENTED_EDGE ( 'NONE', *, *, #90, .T. ) ;
#137 = DIRECTION ( 'NONE',  ( -1.000000000000000000, 0.000000000000000000, 0.000000000000000000 ) ) ;
#138 = APPROVAL_STATUS ( 'not_yet_approved' ) ;
#139 = VERTEX_POINT ( 'NONE', #28 ) ;
#140 = COORDINATED_UNIVERSAL_TIME_OFFSET ( 2, 0, .AHEAD. ) ;
#141 =( LENGTH_UNIT ( ) NAMED_UNIT ( * ) SI_UNIT ( .MILLI., .METRE. ) );
#142 = AXIS2_PLACEMENT_3D ( 'NONE', #81, #133, #188 ) ;
#143 = APPROVAL_DATE_TIME ( #78, #164 ) ;
#144 = DIRECTION ( 'NONE',  ( 1.000000000000000000, 0.000000000000000000, 0.000000000000000000 ) ) ;
#145 = APPROVAL ( #198, 'UNSPECIFIED' ) ;
#146 = DIRECTION ( 'NONE',  ( -0.000000000000000000, -0.000000000000000000, -1.000000000000000000 ) ) ;
#147 = CIRCLE ( 'NONE', #77, 999.9999999999997726 ) ;
#148 = CC_DESIGN_DATE_AND_TIME_ASSIGNMENT ( #22, #166, ( #200 ) ) ;
#149 = EDGE_LOOP ( 'NONE', ( #11, #8, #104, #163 ) ) ;
#150 = CARTESIAN_POINT ( 'NONE',  ( 0.000000000000000000, 0.000000000000000000, 10.00000000000000000 ) ) ;
#151 = VERTEX_POINT ( 'NONE', #155 ) ;
#152 = PERSON_AND_ORGANIZATION_ROLE ( 'classification_officer' ) ;
#153 = CALENDAR_DATE ( 2021, 25, 2 ) ;
#154 = CC_DESIGN_DATE_AND_TIME_ASSIGNMENT ( #56, #42, ( #57 ) ) ;
#155 = CARTESIAN_POINT ( 'NONE',  ( 25.40000000000078373, 3.110602869834373106E-15, 10.00000000000000888 ) ) ;
#156 = CARTESIAN_POINT ( 'NONE',  ( 1.861324302276977606E-13, 0.000000000000000000, 9.677367954281535845 ) ) ;
#157 = CIRCLE ( 'NONE', #199, 25.39999999999999858 ) ;
#158 = EDGE_CURVE ( 'NONE', #151, #36, #67, .T. ) ;
#159 = CALENDAR_DATE ( 2021, 25, 2 ) ;
#160 = MECHANICAL_CONTEXT ( 'NONE', #114, 'mechanical' ) ;
#161 = DIRECTION ( 'NONE',  ( 1.224646799147353207E-16, -1.000000000000000000, 0.000000000000000000 ) ) ;
#162 = DIRECTION ( 'NONE',  ( 0.000000000000000000, 0.000000000000000000, 1.000000000000000000 ) ) ;
#163 = ORIENTED_EDGE ( 'NONE', *, *, #48, .T. ) ;
#164 = APPROVAL ( #51, 'UNSPECIFIED' ) ;
#165 = AXIS2_PLACEMENT_3D ( 'NONE', #91, #128, #46 ) ;
#166 = DATE_TIME_ROLE ( 'creation_date' ) ;
#167 = DIRECTION ( 'NONE',  ( -0.000000000000000000, -0.000000000000000000, -1.000000000000000000 ) ) ;
#168 = PERSON_AND_ORGANIZATION_ROLE ( 'creator' ) ;
#169 = LOCAL_TIME ( 15, 32, 27.00000000000000000, #97 ) ;
#170 = MANIFOLD_SOLID_BREP ( 'Cut-Revolve1', #84 ) ;
#171 = APPROVAL_PERSON_ORGANIZATION ( #24, #145, #12 ) ;
#172 = SPHERICAL_SURFACE ( 'NONE', #165, 999.9999999999998863 ) ;
#173 = VECTOR ( 'NONE', #185, 1000.000000000000000 ) ;
#174 = CARTESIAN_POINT ( 'NONE',  ( 0.000000000000000000, 0.000000000000000000, 0.000000000000000000 ) ) ;
#175 = DIRECTION ( 'NONE',  ( 0.000000000000000000, 0.000000000000000000, 1.000000000000000000 ) ) ;
#176 = ORIENTED_EDGE ( 'NONE', *, *, #110, .F. ) ;
#177 = ORIENTED_EDGE ( 'NONE', *, *, #158, .F. ) ;
#178 = VECTOR ( 'NONE', #85, 1000.000000000000000 ) ;
#179 = APPROVAL_DATE_TIME ( #107, #37 ) ;
#180 = COORDINATED_UNIVERSAL_TIME_OFFSET ( 2, 0, .AHEAD. ) ;
#181 = PERSON_AND_ORGANIZATION ( #71, #182 ) ;
#182 = ORGANIZATION ( 'UNSPECIFIED', 'UNSPECIFIED', '' ) ;
#183 = DESIGN_CONTEXT ( 'detailed design', #197, 'design' ) ;
#184 = VERTEX_POINT ( 'NONE', #156 ) ;
#185 = DIRECTION ( 'NONE',  ( -0.000000000000000000, -0.000000000000000000, -1.000000000000000000 ) ) ;
#186 = AXIS2_PLACEMENT_3D ( 'NONE', #45, #76, #14 ) ;
#187 = APPLICATION_PROTOCOL_DEFINITION ( 'international standard', 'config_control_design', 1994, #114 ) ;
#188 = DIRECTION ( 'NONE',  ( -1.000000000000000000, 0.000000000000000000, 0.000000000000000000 ) ) ;
#189 = DIRECTION ( 'NONE',  ( 0.000000000000000000, 0.000000000000000000, 1.000000000000000000 ) ) ;
#190 = AXIS2_PLACEMENT_3D ( 'NONE', #61, #29, #112 ) ;
#191 = ADVANCED_FACE ( 'NONE', ( #93 ), #113, .F. ) ;
#192 = ORIENTED_EDGE ( 'NONE', *, *, #68, .F. ) ;
#193 = PERSON_AND_ORGANIZATION ( #71, #182 ) ;
#194 = CARTESIAN_POINT ( 'NONE',  ( 25.39999999999999858, 3.110602869834276865E-15, 10.00000000000000000 ) ) ;
#195 = CC_DESIGN_APPROVAL ( #145, ( #57 ) ) ;
#196 = COORDINATED_UNIVERSAL_TIME_OFFSET ( 2, 0, .AHEAD. ) ;
#197 = APPLICATION_CONTEXT ( 'configuration controlled 3d designs of mechanical parts and assemblies' ) ;
#198 = APPROVAL_STATUS ( 'not_yet_approved' ) ;
#199 = AXIS2_PLACEMENT_3D ( 'NONE', #116, #162, #4 ) ;
#200 = PRODUCT_DEFINITION ( 'UNKNOWN', '', #27, #183 ) ;
#201 =( NAMED_UNIT ( * ) PLANE_ANGLE_UNIT ( ) SI_UNIT ( $, .RADIAN. ) );
ENDSEC;
END-ISO-10303-21;
