ISO-10303-21;
HEADER;
FILE_DESCRIPTION (( 'STEP AP203' ),
    '1' );
FILE_NAME ('010-1511E_UVFS_PCV_window.STEP',
    '2021-02-25T13:31:41',
    ( '' ),
    ( '' ),
    'SwSTEP 2.0',
    'SolidWorks 2019',
    '' );
FILE_SCHEMA (( 'CONFIG_CONTROL_DESIGN' ));
ENDSEC;

DATA;
#1 = LINE ( 'NONE', #72, #97 ) ;
#2 = AXIS2_PLACEMENT_3D ( 'NONE', #135, #37, #56 ) ;
#3 = VERTEX_POINT ( 'NONE', #21 ) ;
#4 = ADVANCED_FACE ( 'NONE', ( #136 ), #57, .T. ) ;
#5 = CIRCLE ( 'NONE', #17, 800.0000000000000000 ) ;
#6 = AXIS2_PLACEMENT_3D ( 'NONE', #170, #171, #185 ) ;
#7 = FACE_OUTER_BOUND ( 'NONE', #45, .T. ) ;
#8 = VERTEX_POINT ( 'NONE', #60 ) ;
#9 = CARTESIAN_POINT ( 'NONE',  ( 1.006139616066548115E-13, 0.000000000000000000, 809.5966733297482278 ) ) ;
#10 = LINE ( 'NONE', #22, #125 ) ;
#11 = EDGE_LOOP ( 'NONE', ( #28, #188, #199, #138 ) ) ;
#12 = DIRECTION ( 'NONE',  ( 0.000000000000000000, 0.000000000000000000, 1.000000000000000000 ) ) ;
#13 = PERSON_AND_ORGANIZATION_ROLE ( 'classification_officer' ) ;
#14 = DIRECTION ( 'NONE',  ( -0.000000000000000000, -0.000000000000000000, -1.000000000000000000 ) ) ;
#15 = AXIS2_PLACEMENT_3D ( 'NONE', #103, #76, #40 ) ;
#16 = PERSON_AND_ORGANIZATION_ROLE ( 'creator' ) ;
#17 = AXIS2_PLACEMENT_3D ( 'NONE', #78, #134, #82 ) ;
#18 = ADVANCED_FACE ( 'NONE', ( #148 ), #197, .F. ) ;
#19 = CARTESIAN_POINT ( 'NONE',  ( 0.000000000000000000, 0.000000000000000000, 10.00000000000000000 ) ) ;
#20 = DATE_AND_TIME ( #101, #29 ) ;
#21 = CARTESIAN_POINT ( 'NONE',  ( -25.39999999999837144, 0.000000000000000000, 10.00000000000000888 ) ) ;
#22 = CARTESIAN_POINT ( 'NONE',  ( 25.39999999999999858, 3.110602869834276865E-15, 10.00000000000000000 ) ) ;
#23 = CC_DESIGN_DATE_AND_TIME_ASSIGNMENT ( #104, #168, ( #33 ) ) ;
#24 = SPHERICAL_SURFACE ( 'NONE', #31, 800.0000000000000000 ) ;
#25 = PERSON_AND_ORGANIZATION ( #196, #174 ) ;
#26 = ORIENTED_EDGE ( 'NONE', *, *, #143, .T. ) ;
#27 = DIRECTION ( 'NONE',  ( -0.000000000000000000, -0.000000000000000000, -1.000000000000000000 ) ) ;
#28 = ORIENTED_EDGE ( 'NONE', *, *, #182, .F. ) ;
#29 = LOCAL_TIME ( 15, 31, 40.00000000000000000, #35 ) ;
#30 = PRODUCT_DEFINITION_SHAPE ( 'NONE', 'NONE',  #33 ) ;
#31 = AXIS2_PLACEMENT_3D ( 'NONE', #169, #42, #142 ) ;
#32 = CC_DESIGN_PERSON_AND_ORGANIZATION_ASSIGNMENT ( #191, #152, ( #162 ) ) ;
#33 = PRODUCT_DEFINITION ( 'UNKNOWN', '', #162, #48 ) ;
#34 = APPROVAL_PERSON_ORGANIZATION ( #189, #132, #140 ) ;
#35 = COORDINATED_UNIVERSAL_TIME_OFFSET ( 2, 0, .AHEAD. ) ;
#36 = FACE_OUTER_BOUND ( 'NONE', #41, .T. ) ;
#37 = DIRECTION ( 'NONE',  ( 0.000000000000000000, 0.000000000000000000, 1.000000000000000000 ) ) ;
#38 = DIRECTION ( 'NONE',  ( -0.000000000000000000, -0.000000000000000000, -1.000000000000000000 ) ) ;
#39 = PERSON_AND_ORGANIZATION_ROLE ( 'creator' ) ;
#40 = DIRECTION ( 'NONE',  ( 1.000000000000000000, 0.000000000000000000, 0.000000000000000000 ) ) ;
#41 = EDGE_LOOP ( 'NONE', ( #95, #200, #91 ) ) ;
#42 = DIRECTION ( 'NONE',  ( 0.000000000000000000, -1.000000000000000000, -0.000000000000000000 ) ) ;
#43 = APPROVAL_STATUS ( 'not_yet_approved' ) ;
#44 = LOCAL_TIME ( 15, 31, 40.00000000000000000, #129 ) ;
#45 = EDGE_LOOP ( 'NONE', ( #151, #126, #58, #74 ) ) ;
#46 = SECURITY_CLASSIFICATION ( '', '', #75 ) ;
#47 = EDGE_CURVE ( 'NONE', #3, #115, #158, .T. ) ;
#48 = DESIGN_CONTEXT ( 'detailed design', #109, 'design' ) ;
#49 = APPROVAL_ROLE ( '' ) ;
#50 =( LENGTH_UNIT ( ) NAMED_UNIT ( * ) SI_UNIT ( .MILLI., .METRE. ) );
#51 = APPROVAL ( #145, 'UNSPECIFIED' ) ;
#52 = CARTESIAN_POINT ( 'NONE',  ( 1.006139616066548115E-13, 0.000000000000000000, 10.00000000000000888 ) ) ;
#53 = DIRECTION ( 'NONE',  ( -0.000000000000000000, -0.000000000000000000, -1.000000000000000000 ) ) ;
#54 = ORIENTED_EDGE ( 'NONE', *, *, #63, .F. ) ;
#55 = ADVANCED_FACE ( 'NONE', ( #127 ), #139, .F. ) ;
#56 = DIRECTION ( 'NONE',  ( 1.000000000000000000, 0.000000000000000000, 0.000000000000000000 ) ) ;
#57 = CYLINDRICAL_SURFACE ( 'NONE', #79, 25.39999999999999858 ) ;
#58 = ORIENTED_EDGE ( 'NONE', *, *, #85, .T. ) ;
#59 = APPROVAL_DATE_TIME ( #113, #132 ) ;
#60 = CARTESIAN_POINT ( 'NONE',  ( -25.39999999999999858, 0.000000000000000000, 0.000000000000000000 ) ) ;
#61 = APPROVAL_DATE_TIME ( #201, #111 ) ;
#62 = CC_DESIGN_SECURITY_CLASSIFICATION ( #46, ( #162 ) ) ;
#63 = EDGE_CURVE ( 'NONE', #8, #164, #187, .T. ) ;
#64 = PERSON_AND_ORGANIZATION ( #196, #174 ) ;
#65 = AXIS2_PLACEMENT_3D ( 'NONE', #179, #178, #195 ) ;
#66 = UNCERTAINTY_MEASURE_WITH_UNIT (LENGTH_MEASURE( 1.000000000000000082E-05 ), #50, 'distance_accuracy_value', 'NONE');
#67 = PERSON_AND_ORGANIZATION ( #196, #174 ) ;
#68 = CARTESIAN_POINT ( 'NONE',  ( 25.39999999999999858, 3.110602869834276865E-15, 0.000000000000000000 ) ) ;
#69 = CC_DESIGN_PERSON_AND_ORGANIZATION_ASSIGNMENT ( #108, #16, ( #162 ) ) ;
#70 = EDGE_LOOP ( 'NONE', ( #54, #119 ) ) ;
#71 = EDGE_CURVE ( 'NONE', #3, #8, #1, .T. ) ;
#72 = CARTESIAN_POINT ( 'NONE',  ( -25.39999999999999858, 0.000000000000000000, 10.00000000000000000 ) ) ;
#73 =( NAMED_UNIT ( * ) PLANE_ANGLE_UNIT ( ) SI_UNIT ( $, .RADIAN. ) );
#74 = ORIENTED_EDGE ( 'NONE', *, *, #71, .F. ) ;
#75 = SECURITY_CLASSIFICATION_LEVEL ( 'unclassified' ) ;
#76 = DIRECTION ( 'NONE',  ( 0.000000000000000000, 0.000000000000000000, 1.000000000000000000 ) ) ;
#77 = CALENDAR_DATE ( 2021, 25, 2 ) ;
#78 = CARTESIAN_POINT ( 'NONE',  ( 1.006139616066548115E-13, 0.000000000000000000, 809.5966733297482278 ) ) ;
#79 = AXIS2_PLACEMENT_3D ( 'NONE', #121, #107, #183 ) ;
#80 = COORDINATED_UNIVERSAL_TIME_OFFSET ( 2, 0, .AHEAD. ) ;
#81 = PRODUCT ( '010-1511E_UVFS_PCV_window', '010-1511E_UVFS_PCV_window', '', ( #98 ) ) ;
#82 = DIRECTION ( 'NONE',  ( 1.000000000000000000, 1.224646799147353207E-16, 0.000000000000000000 ) ) ;
#83 =( NAMED_UNIT ( * ) SI_UNIT ( $, .STERADIAN. ) SOLID_ANGLE_UNIT ( ) );
#84 = COORDINATED_UNIVERSAL_TIME_OFFSET ( 2, 0, .AHEAD. ) ;
#85 = EDGE_CURVE ( 'NONE', #164, #8, #156, .T. ) ;
#86 = EDGE_LOOP ( 'NONE', ( #193, #26, #173 ) ) ;
#87 = APPROVAL_DATE_TIME ( #20, #51 ) ;
#88 = VERTEX_POINT ( 'NONE', #181 ) ;
#89 = APPROVAL_STATUS ( 'not_yet_approved' ) ;
#90 = APPLICATION_CONTEXT ( 'configuration controlled 3d designs of mechanical parts and assemblies' ) ;
#91 = ORIENTED_EDGE ( 'NONE', *, *, #157, .T. ) ;
#92 = CARTESIAN_POINT ( 'NONE',  ( 0.000000000000000000, 0.000000000000000000, 0.000000000000000000 ) ) ;
#93 = DATE_AND_TIME ( #77, #44 ) ;
#94 = ADVANCED_BREP_SHAPE_REPRESENTATION ( '010-1511E_UVFS_PCV_window', ( #160, #2 ), #146 ) ;
#95 = ORIENTED_EDGE ( 'NONE', *, *, #143, .F. ) ;
#96 = CLOSED_SHELL ( 'NONE', ( #55, #166, #4, #18, #133 ) ) ;
#97 = VECTOR ( 'NONE', #38, 1000.000000000000000 ) ;
#98 = MECHANICAL_CONTEXT ( 'NONE', #90, 'mechanical' ) ;
#99 = DIRECTION ( 'NONE',  ( -1.000000000000000000, 0.000000000000000000, 0.000000000000000000 ) ) ;
#100 = LOCAL_TIME ( 15, 31, 40.00000000000000000, #117 ) ;
#101 = CALENDAR_DATE ( 2021, 25, 2 ) ;
#102 = DIRECTION ( 'NONE',  ( 1.000000000000000000, 0.000000000000000000, 0.000000000000000000 ) ) ;
#103 = CARTESIAN_POINT ( 'NONE',  ( 0.000000000000000000, 0.000000000000000000, 0.000000000000000000 ) ) ;
#104 = DATE_AND_TIME ( #147, #116 ) ;
#105 = CARTESIAN_POINT ( 'NONE',  ( 1.006139616066548115E-13, 0.000000000000000000, 10.00000000000000888 ) ) ;
#106 = PERSON_AND_ORGANIZATION ( #196, #174 ) ;
#107 = DIRECTION ( 'NONE',  ( -0.000000000000000000, -0.000000000000000000, -1.000000000000000000 ) ) ;
#108 = PERSON_AND_ORGANIZATION ( #196, #174 ) ;
#109 = APPLICATION_CONTEXT ( 'configuration controlled 3d designs of mechanical parts and assemblies' ) ;
#110 = DIRECTION ( 'NONE',  ( 0.000000000000000000, -1.000000000000000000, -0.000000000000000000 ) ) ;
#111 = APPROVAL ( #89, 'UNSPECIFIED' ) ;
#112 = SHAPE_DEFINITION_REPRESENTATION ( #30, #94 ) ;
#113 = DATE_AND_TIME ( #186, #194 ) ;
#114 = AXIS2_PLACEMENT_3D ( 'NONE', #105, #14, #167 ) ;
#115 = VERTEX_POINT ( 'NONE', #154 ) ;
#116 = LOCAL_TIME ( 15, 31, 40.00000000000000000, #84 ) ;
#117 = COORDINATED_UNIVERSAL_TIME_OFFSET ( 2, 0, .AHEAD. ) ;
#118 = CC_DESIGN_APPROVAL ( #111, ( #162 ) ) ;
#119 = ORIENTED_EDGE ( 'NONE', *, *, #85, .F. ) ;
#120 = CYLINDRICAL_SURFACE ( 'NONE', #155, 25.39999999999999858 ) ;
#121 = CARTESIAN_POINT ( 'NONE',  ( 0.000000000000000000, 0.000000000000000000, 10.00000000000000000 ) ) ;
#122 = PERSON_AND_ORGANIZATION ( #196, #174 ) ;
#123 = DIRECTION ( 'NONE',  ( 1.000000000000000000, 0.000000000000000000, 0.000000000000000000 ) ) ;
#124 = DATE_TIME_ROLE ( 'classification_date' ) ;
#125 = VECTOR ( 'NONE', #53, 1000.000000000000000 ) ;
#126 = ORIENTED_EDGE ( 'NONE', *, *, #182, .T. ) ;
#127 = FACE_OUTER_BOUND ( 'NONE', #86, .T. ) ;
#128 = EDGE_CURVE ( 'NONE', #115, #3, #198, .T. ) ;
#129 = COORDINATED_UNIVERSAL_TIME_OFFSET ( 2, 0, .AHEAD. ) ;
#130 = APPROVAL_PERSON_ORGANIZATION ( #64, #51, #161 ) ;
#131 = AXIS2_PLACEMENT_3D ( 'NONE', #9, #110, #102 ) ;
#132 = APPROVAL ( #43, 'UNSPECIFIED' ) ;
#133 = ADVANCED_FACE ( 'NONE', ( #36 ), #24, .F. ) ;
#134 = DIRECTION ( 'NONE',  ( 1.224646799147353207E-16, -1.000000000000000000, 0.000000000000000000 ) ) ;
#135 = CARTESIAN_POINT ( 'NONE',  ( 0.000000000000000000, 0.000000000000000000, 0.000000000000000000 ) ) ;
#136 = FACE_OUTER_BOUND ( 'NONE', #11, .T. ) ;
#137 = CC_DESIGN_PERSON_AND_ORGANIZATION_ASSIGNMENT ( #122, #39, ( #33 ) ) ;
#138 = ORIENTED_EDGE ( 'NONE', *, *, #63, .T. ) ;
#139 = SPHERICAL_SURFACE ( 'NONE', #131, 800.0000000000000000 ) ;
#140 = APPROVAL_ROLE ( '' ) ;
#141 = APPROVAL_PERSON_ORGANIZATION ( #25, #111, #49 ) ;
#142 = DIRECTION ( 'NONE',  ( 1.000000000000000000, 0.000000000000000000, 0.000000000000000000 ) ) ;
#143 = EDGE_CURVE ( 'NONE', #3, #88, #5, .T. ) ;
#144 = CC_DESIGN_PERSON_AND_ORGANIZATION_ASSIGNMENT ( #67, #184, ( #81 ) ) ;
#145 = APPROVAL_STATUS ( 'not_yet_approved' ) ;
#146 =( GEOMETRIC_REPRESENTATION_CONTEXT ( 3 ) GLOBAL_UNCERTAINTY_ASSIGNED_CONTEXT ( ( #66 ) ) GLOBAL_UNIT_ASSIGNED_CONTEXT ( ( #50, #73, #83 ) ) REPRESENTATION_CONTEXT ( 'NONE', 'WORKASPACE' ) );
#147 = CALENDAR_DATE ( 2021, 25, 2 ) ;
#148 = FACE_OUTER_BOUND ( 'NONE', #70, .T. ) ;
#149 = APPLICATION_PROTOCOL_DEFINITION ( 'international standard', 'config_control_design', 1994, #109 ) ;
#150 = CC_DESIGN_APPROVAL ( #132, ( #46 ) ) ;
#151 = ORIENTED_EDGE ( 'NONE', *, *, #47, .T. ) ;
#152 = PERSON_AND_ORGANIZATION_ROLE ( 'design_supplier' ) ;
#153 = DIRECTION ( 'NONE',  ( 1.000000000000000000, 0.000000000000000000, 0.000000000000000000 ) ) ;
#154 = CARTESIAN_POINT ( 'NONE',  ( 25.39999999999857394, 3.110602869834190090E-15, 10.00000000000000888 ) ) ;
#155 = AXIS2_PLACEMENT_3D ( 'NONE', #19, #159, #99 ) ;
#156 = CIRCLE ( 'NONE', #15, 25.39999999999999858 ) ;
#157 = EDGE_CURVE ( 'NONE', #115, #88, #176, .T. ) ;
#158 = CIRCLE ( 'NONE', #192, 25.39999999999847091 ) ;
#159 = DIRECTION ( 'NONE',  ( -0.000000000000000000, -0.000000000000000000, -1.000000000000000000 ) ) ;
#160 = MANIFOLD_SOLID_BREP ( 'Cut-Revolve1', #96 ) ;
#161 = APPROVAL_ROLE ( '' ) ;
#162 = PRODUCT_DEFINITION_FORMATION_WITH_SPECIFIED_SOURCE ( 'ANY', '', #81, .NOT_KNOWN. ) ;
#163 = CC_DESIGN_PERSON_AND_ORGANIZATION_ASSIGNMENT ( #106, #13, ( #46 ) ) ;
#164 = VERTEX_POINT ( 'NONE', #68 ) ;
#165 = APPLICATION_PROTOCOL_DEFINITION ( 'international standard', 'config_control_design', 1994, #90 ) ;
#166 = ADVANCED_FACE ( 'NONE', ( #7 ), #120, .T. ) ;
#167 = DIRECTION ( 'NONE',  ( 1.000000000000000000, 0.000000000000000000, 0.000000000000000000 ) ) ;
#168 = DATE_TIME_ROLE ( 'creation_date' ) ;
#169 = CARTESIAN_POINT ( 'NONE',  ( 1.006139616066548115E-13, 0.000000000000000000, 809.5966733297482278 ) ) ;
#170 = CARTESIAN_POINT ( 'NONE',  ( 0.000000000000000000, 0.000000000000000000, 0.000000000000000000 ) ) ;
#171 = DIRECTION ( 'NONE',  ( 0.000000000000000000, 0.000000000000000000, 1.000000000000000000 ) ) ;
#172 = AXIS2_PLACEMENT_3D ( 'NONE', #92, #12, #123 ) ;
#173 = ORIENTED_EDGE ( 'NONE', *, *, #157, .F. ) ;
#174 = ORGANIZATION ( 'UNSPECIFIED', 'UNSPECIFIED', '' ) ;
#175 = PRODUCT_RELATED_PRODUCT_CATEGORY ( 'detail', '', ( #81 ) ) ;
#176 = CIRCLE ( 'NONE', #65, 799.9999999999998863 ) ;
#177 = CALENDAR_DATE ( 2021, 25, 2 ) ;
#178 = DIRECTION ( 'NONE',  ( 0.000000000000000000, 1.000000000000000000, -0.000000000000000000 ) ) ;
#179 = CARTESIAN_POINT ( 'NONE',  ( 1.006139616066548115E-13, 0.000000000000000000, 809.5966733297482278 ) ) ;
#180 = CC_DESIGN_APPROVAL ( #51, ( #33 ) ) ;
#181 = CARTESIAN_POINT ( 'NONE',  ( 1.495998335725489212E-13, 0.000000000000000000, 9.596673329748227843 ) ) ;
#182 = EDGE_CURVE ( 'NONE', #115, #164, #10, .T. ) ;
#183 = DIRECTION ( 'NONE',  ( -1.000000000000000000, 0.000000000000000000, 0.000000000000000000 ) ) ;
#184 = PERSON_AND_ORGANIZATION_ROLE ( 'design_owner' ) ;
#185 = DIRECTION ( 'NONE',  ( 1.000000000000000000, 0.000000000000000000, -0.000000000000000000 ) ) ;
#186 = CALENDAR_DATE ( 2021, 25, 2 ) ;
#187 = CIRCLE ( 'NONE', #172, 25.39999999999999858 ) ;
#188 = ORIENTED_EDGE ( 'NONE', *, *, #128, .T. ) ;
#189 = PERSON_AND_ORGANIZATION ( #196, #174 ) ;
#190 = CC_DESIGN_DATE_AND_TIME_ASSIGNMENT ( #93, #124, ( #46 ) ) ;
#191 = PERSON_AND_ORGANIZATION ( #196, #174 ) ;
#192 = AXIS2_PLACEMENT_3D ( 'NONE', #52, #27, #153 ) ;
#193 = ORIENTED_EDGE ( 'NONE', *, *, #47, .F. ) ;
#194 = LOCAL_TIME ( 15, 31, 40.00000000000000000, #80 ) ;
#195 = DIRECTION ( 'NONE',  ( 0.000000000000000000, 0.000000000000000000, 1.000000000000000000 ) ) ;
#196 = PERSON ( 'UNSPECIFIED', 'UNSPECIFIED', 'UNSPECIFIED', ('UNSPECIFIED'), ('UNSPECIFIED'), ('UNSPECIFIED') ) ;
#197 = PLANE ( 'NONE',  #6 ) ;
#198 = CIRCLE ( 'NONE', #114, 25.39999999999847091 ) ;
#199 = ORIENTED_EDGE ( 'NONE', *, *, #71, .T. ) ;
#200 = ORIENTED_EDGE ( 'NONE', *, *, #128, .F. ) ;
#201 = DATE_AND_TIME ( #177, #100 ) ;
ENDSEC;
END-ISO-10303-21;
