ISO-10303-21;
HEADER;
FILE_DESCRIPTION (( 'STEP AP203' ),
    '1' );
FILE_NAME ('010-1510E_UVFS_PCV_window.STEP',
    '2021-02-25T13:31:19',
    ( '' ),
    ( '' ),
    'SwSTEP 2.0',
    'SolidWorks 2019',
    '' );
FILE_SCHEMA (( 'CONFIG_CONTROL_DESIGN' ));
ENDSEC;

DATA;
#1 = CC_DESIGN_PERSON_AND_ORGANIZATION_ASSIGNMENT ( #199, #65, ( #86 ) ) ;
#2 = ORIENTED_EDGE ( 'NONE', *, *, #103, .T. ) ;
#3 = CC_DESIGN_APPROVAL ( #194, ( #86 ) ) ;
#4 = APPLICATION_PROTOCOL_DEFINITION ( 'international standard', 'config_control_design', 1994, #147 ) ;
#5 = EDGE_CURVE ( 'NONE', #15, #93, #107, .T. ) ;
#6 = LOCAL_TIME ( 15, 31, 19.00000000000000000, #79 ) ;
#7 = DIRECTION ( 'NONE',  ( 1.000000000000000000, 0.000000000000000000, 0.000000000000000000 ) ) ;
#8 = DIRECTION ( 'NONE',  ( -1.000000000000000000, 0.000000000000000000, 0.000000000000000000 ) ) ;
#9 = ORIENTED_EDGE ( 'NONE', *, *, #190, .T. ) ;
#10 = LINE ( 'NONE', #140, #29 ) ;
#11 = DIRECTION ( 'NONE',  ( 0.000000000000000000, -1.000000000000000000, -0.000000000000000000 ) ) ;
#12 = PERSON_AND_ORGANIZATION ( #120, #98 ) ;
#13 = VERTEX_POINT ( 'NONE', #153 ) ;
#14 = COORDINATED_UNIVERSAL_TIME_OFFSET ( 2, 0, .AHEAD. ) ;
#15 = VERTEX_POINT ( 'NONE', #181 ) ;
#16 = PRODUCT_DEFINITION_FORMATION_WITH_SPECIFIED_SOURCE ( 'ANY', '', #45, .NOT_KNOWN. ) ;
#17 = DIRECTION ( 'NONE',  ( 1.000000000000000000, 0.000000000000000000, 0.000000000000000000 ) ) ;
#18 = CARTESIAN_POINT ( 'NONE',  ( 0.000000000000000000, 0.000000000000000000, 0.000000000000000000 ) ) ;
#19 = CIRCLE ( 'NONE', #142, 750.0000000000002274 ) ;
#20 = ADVANCED_FACE ( 'NONE', ( #109 ), #170, .F. ) ;
#21 = DIRECTION ( 'NONE',  ( 1.000000000000000000, 0.000000000000000000, -0.000000000000000000 ) ) ;
#22 = UNCERTAINTY_MEASURE_WITH_UNIT (LENGTH_MEASURE( 1.000000000000000082E-05 ), #118, 'distance_accuracy_value', 'NONE');
#23 = ORIENTED_EDGE ( 'NONE', *, *, #158, .F. ) ;
#24 = CARTESIAN_POINT ( 'NONE',  ( 9.367506770274758310E-14, 0.000000000000000000, 759.5697699347272192 ) ) ;
#25 = ORIENTED_EDGE ( 'NONE', *, *, #31, .F. ) ;
#26 = PERSON_AND_ORGANIZATION_ROLE ( 'design_supplier' ) ;
#27 = EDGE_LOOP ( 'NONE', ( #23, #112, #9 ) ) ;
#28 = DATE_AND_TIME ( #173, #191 ) ;
#29 = VECTOR ( 'NONE', #197, 1000.000000000000000 ) ;
#30 = CC_DESIGN_PERSON_AND_ORGANIZATION_ASSIGNMENT ( #97, #159, ( #80 ) ) ;
#31 = EDGE_CURVE ( 'NONE', #185, #13, #192, .T. ) ;
#32 = ORIENTED_EDGE ( 'NONE', *, *, #190, .F. ) ;
#33 = CALENDAR_DATE ( 2021, 25, 2 ) ;
#34 = COORDINATED_UNIVERSAL_TIME_OFFSET ( 2, 0, .AHEAD. ) ;
#35 = DIRECTION ( 'NONE',  ( -0.000000000000000000, -0.000000000000000000, -1.000000000000000000 ) ) ;
#36 =( NAMED_UNIT ( * ) PLANE_ANGLE_UNIT ( ) SI_UNIT ( $, .RADIAN. ) );
#37 = DIRECTION ( 'NONE',  ( -0.000000000000000000, -0.000000000000000000, -1.000000000000000000 ) ) ;
#38 = PERSON_AND_ORGANIZATION_ROLE ( 'design_owner' ) ;
#39 = CC_DESIGN_PERSON_AND_ORGANIZATION_ASSIGNMENT ( #156, #26, ( #16 ) ) ;
#40 = CYLINDRICAL_SURFACE ( 'NONE', #119, 25.39999999999999858 ) ;
#41 = AXIS2_PLACEMENT_3D ( 'NONE', #18, #56, #148 ) ;
#42 = PRODUCT_DEFINITION_SHAPE ( 'NONE', 'NONE',  #86 ) ;
#43 = CIRCLE ( 'NONE', #122, 25.40000000000502922 ) ;
#44 = CYLINDRICAL_SURFACE ( 'NONE', #165, 25.39999999999999858 ) ;
#45 = PRODUCT ( '010-1510E_UVFS_PCV_window', '010-1510E_UVFS_PCV_window', '', ( #85 ) ) ;
#46 = DIRECTION ( 'NONE',  ( 0.000000000000000000, -1.000000000000000000, -0.000000000000000000 ) ) ;
#47 = SPHERICAL_SURFACE ( 'NONE', #87, 750.0000000000001137 ) ;
#48 = VERTEX_POINT ( 'NONE', #74 ) ;
#49 = LOCAL_TIME ( 15, 31, 19.00000000000000000, #175 ) ;
#50 = APPLICATION_PROTOCOL_DEFINITION ( 'international standard', 'config_control_design', 1994, #177 ) ;
#51 = CC_DESIGN_PERSON_AND_ORGANIZATION_ASSIGNMENT ( #187, #172, ( #16 ) ) ;
#52 = DATE_AND_TIME ( #130, #6 ) ;
#53 = ADVANCED_FACE ( 'NONE', ( #121 ), #40, .T. ) ;
#54 = APPROVAL_ROLE ( '' ) ;
#55 = FACE_OUTER_BOUND ( 'NONE', #160, .T. ) ;
#56 = DIRECTION ( 'NONE',  ( 0.000000000000000000, 0.000000000000000000, 1.000000000000000000 ) ) ;
#57 = PERSON_AND_ORGANIZATION ( #120, #98 ) ;
#58 = EDGE_CURVE ( 'NONE', #93, #15, #43, .T. ) ;
#59 = CIRCLE ( 'NONE', #171, 25.39999999999999858 ) ;
#60 = PLANE ( 'NONE',  #189 ) ;
#61 = CARTESIAN_POINT ( 'NONE',  ( 0.000000000000000000, 0.000000000000000000, 10.00000000000000000 ) ) ;
#62 = DIRECTION ( 'NONE',  ( 1.000000000000000000, 0.000000000000000000, 0.000000000000000000 ) ) ;
#63 = CARTESIAN_POINT ( 'NONE',  ( 0.000000000000000000, 0.000000000000000000, 0.000000000000000000 ) ) ;
#64 = ORIENTED_EDGE ( 'NONE', *, *, #158, .T. ) ;
#65 = PERSON_AND_ORGANIZATION_ROLE ( 'creator' ) ;
#66 = CC_DESIGN_SECURITY_CLASSIFICATION ( #80, ( #16 ) ) ;
#67 = APPROVAL_STATUS ( 'not_yet_approved' ) ;
#68 = PERSON_AND_ORGANIZATION ( #120, #98 ) ;
#69 = PRODUCT_RELATED_PRODUCT_CATEGORY ( 'detail', '', ( #45 ) ) ;
#70 = ORIENTED_EDGE ( 'NONE', *, *, #91, .T. ) ;
#71 = APPROVAL_PERSON_ORGANIZATION ( #12, #194, #116 ) ;
#72 = CIRCLE ( 'NONE', #149, 750.0000000000001137 ) ;
#73 = ADVANCED_FACE ( 'NONE', ( #55 ), #47, .F. ) ;
#74 = CARTESIAN_POINT ( 'NONE',  ( 1.395993226707733394E-13, 0.000000000000000000, 9.569769934727133887 ) ) ;
#75 = CARTESIAN_POINT ( 'NONE',  ( 0.000000000000000000, 0.000000000000000000, 0.000000000000000000 ) ) ;
#76 = DIRECTION ( 'NONE',  ( 1.224646799147353207E-16, -1.000000000000000000, 0.000000000000000000 ) ) ;
#77 = EDGE_LOOP ( 'NONE', ( #188, #144, #2, #198 ) ) ;
#78 = CARTESIAN_POINT ( 'NONE',  ( 9.367506770274758310E-14, 0.000000000000000000, 759.5697699347272192 ) ) ;
#79 = COORDINATED_UNIVERSAL_TIME_OFFSET ( 2, 0, .AHEAD. ) ;
#80 = SECURITY_CLASSIFICATION ( '', '', #95 ) ;
#81 = ORIENTED_EDGE ( 'NONE', *, *, #91, .F. ) ;
#82 = CALENDAR_DATE ( 2021, 25, 2 ) ;
#83 = APPROVAL_PERSON_ORGANIZATION ( #146, #131, #176 ) ;
#84 = DIRECTION ( 'NONE',  ( -1.000000000000000000, 0.000000000000000000, 0.000000000000000000 ) ) ;
#85 = MECHANICAL_CONTEXT ( 'NONE', #147, 'mechanical' ) ;
#86 = PRODUCT_DEFINITION ( 'UNKNOWN', '', #16, #195 ) ;
#87 = AXIS2_PLACEMENT_3D ( 'NONE', #180, #46, #108 ) ;
#88 = VECTOR ( 'NONE', #92, 1000.000000000000000 ) ;
#89 = DIRECTION ( 'NONE',  ( -0.000000000000000000, -0.000000000000000000, -1.000000000000000000 ) ) ;
#90 = DIRECTION ( 'NONE',  ( -0.000000000000000000, -0.000000000000000000, -1.000000000000000000 ) ) ;
#91 = EDGE_CURVE ( 'NONE', #13, #185, #59, .T. ) ;
#92 = DIRECTION ( 'NONE',  ( -0.000000000000000000, -0.000000000000000000, -1.000000000000000000 ) ) ;
#93 = VERTEX_POINT ( 'NONE', #168 ) ;
#94 = AXIS2_PLACEMENT_3D ( 'NONE', #75, #105, #7 ) ;
#95 = SECURITY_CLASSIFICATION_LEVEL ( 'unclassified' ) ;
#96 = ORIENTED_EDGE ( 'NONE', *, *, #5, .T. ) ;
#97 = PERSON_AND_ORGANIZATION ( #120, #98 ) ;
#98 = ORGANIZATION ( 'UNSPECIFIED', 'UNSPECIFIED', '' ) ;
#99 = EDGE_LOOP ( 'NONE', ( #25, #81 ) ) ;
#100 = SHAPE_DEFINITION_REPRESENTATION ( #42, #128 ) ;
#101 = APPROVAL_DATE_TIME ( #135, #182 ) ;
#102 = MANIFOLD_SOLID_BREP ( 'Cut-Revolve1', #138 ) ;
#103 = EDGE_CURVE ( 'NONE', #15, #185, #10, .T. ) ;
#104 = DIRECTION ( 'NONE',  ( 0.000000000000000000, 0.000000000000000000, 1.000000000000000000 ) ) ;
#105 = DIRECTION ( 'NONE',  ( 0.000000000000000000, 0.000000000000000000, 1.000000000000000000 ) ) ;
#106 = CARTESIAN_POINT ( 'NONE',  ( 0.000000000000000000, 0.000000000000000000, 10.00000000000000000 ) ) ;
#107 = CIRCLE ( 'NONE', #136, 25.40000000000502922 ) ;
#108 = DIRECTION ( 'NONE',  ( 1.000000000000000000, 0.000000000000000000, 0.000000000000000000 ) ) ;
#109 = FACE_OUTER_BOUND ( 'NONE', #27, .T. ) ;
#110 = ADVANCED_FACE ( 'NONE', ( #123 ), #60, .F. ) ;
#111 = DIRECTION ( 'NONE',  ( 0.000000000000000000, 0.000000000000000000, 1.000000000000000000 ) ) ;
#112 = ORIENTED_EDGE ( 'NONE', *, *, #58, .F. ) ;
#113 = CC_DESIGN_APPROVAL ( #131, ( #16 ) ) ;
#114 = APPROVAL_DATE_TIME ( #28, #131 ) ;
#115 = COORDINATED_UNIVERSAL_TIME_OFFSET ( 2, 0, .AHEAD. ) ;
#116 = APPROVAL_ROLE ( '' ) ;
#117 = LOCAL_TIME ( 15, 31, 19.00000000000000000, #115 ) ;
#118 =( LENGTH_UNIT ( ) NAMED_UNIT ( * ) SI_UNIT ( .MILLI., .METRE. ) );
#119 = AXIS2_PLACEMENT_3D ( 'NONE', #106, #37, #84 ) ;
#120 = PERSON ( 'UNSPECIFIED', 'UNSPECIFIED', 'UNSPECIFIED', ('UNSPECIFIED'), ('UNSPECIFIED'), ('UNSPECIFIED') ) ;
#121 = FACE_OUTER_BOUND ( 'NONE', #77, .T. ) ;
#122 = AXIS2_PLACEMENT_3D ( 'NONE', #161, #35, #17 ) ;
#123 = FACE_OUTER_BOUND ( 'NONE', #99, .T. ) ;
#124 = CC_DESIGN_PERSON_AND_ORGANIZATION_ASSIGNMENT ( #57, #38, ( #45 ) ) ;
#125 = LOCAL_TIME ( 15, 31, 19.00000000000000000, #14 ) ;
#126 = DIRECTION ( 'NONE',  ( 1.000000000000000000, 1.224646799147353207E-16, 0.000000000000000000 ) ) ;
#127 = EDGE_LOOP ( 'NONE', ( #96, #134, #70, #141 ) ) ;
#128 = ADVANCED_BREP_SHAPE_REPRESENTATION ( '010-1510E_UVFS_PCV_window', ( #102, #41 ), #167 ) ;
#129 = CALENDAR_DATE ( 2021, 25, 2 ) ;
#130 = CALENDAR_DATE ( 2021, 25, 2 ) ;
#131 = APPROVAL ( #186, 'UNSPECIFIED' ) ;
#132 = APPROVAL_STATUS ( 'not_yet_approved' ) ;
#133 = ADVANCED_FACE ( 'NONE', ( #169 ), #44, .T. ) ;
#134 = ORIENTED_EDGE ( 'NONE', *, *, #164, .T. ) ;
#135 = DATE_AND_TIME ( #33, #49 ) ;
#136 = AXIS2_PLACEMENT_3D ( 'NONE', #196, #90, #62 ) ;
#137 = DIRECTION ( 'NONE',  ( 1.000000000000000000, 0.000000000000000000, 0.000000000000000000 ) ) ;
#138 = CLOSED_SHELL ( 'NONE', ( #73, #133, #53, #110, #20 ) ) ;
#139 = ORIENTED_EDGE ( 'NONE', *, *, #5, .F. ) ;
#140 = CARTESIAN_POINT ( 'NONE',  ( -25.39999999999999858, 0.000000000000000000, 10.00000000000000000 ) ) ;
#141 = ORIENTED_EDGE ( 'NONE', *, *, #103, .F. ) ;
#142 = AXIS2_PLACEMENT_3D ( 'NONE', #78, #183, #104 ) ;
#143 = DATE_AND_TIME ( #129, #117 ) ;
#144 = ORIENTED_EDGE ( 'NONE', *, *, #58, .T. ) ;
#145 = DATE_AND_TIME ( #82, #125 ) ;
#146 = PERSON_AND_ORGANIZATION ( #120, #98 ) ;
#147 = APPLICATION_CONTEXT ( 'configuration controlled 3d designs of mechanical parts and assemblies' ) ;
#148 = DIRECTION ( 'NONE',  ( 1.000000000000000000, 0.000000000000000000, 0.000000000000000000 ) ) ;
#149 = AXIS2_PLACEMENT_3D ( 'NONE', #24, #76, #126 ) ;
#150 = CC_DESIGN_DATE_AND_TIME_ASSIGNMENT ( #143, #200, ( #86 ) ) ;
#151 = DIRECTION ( 'NONE',  ( 1.000000000000000000, 0.000000000000000000, 0.000000000000000000 ) ) ;
#152 = CARTESIAN_POINT ( 'NONE',  ( 0.000000000000000000, 0.000000000000000000, 0.000000000000000000 ) ) ;
#153 = CARTESIAN_POINT ( 'NONE',  ( 25.39999999999999858, 3.110602869834276865E-15, 0.000000000000000000 ) ) ;
#154 = CARTESIAN_POINT ( 'NONE',  ( -25.39999999999999858, 0.000000000000000000, 0.000000000000000000 ) ) ;
#155 = CARTESIAN_POINT ( 'NONE',  ( 9.367506770274758310E-14, 0.000000000000000000, 759.5697699347272192 ) ) ;
#156 = PERSON_AND_ORGANIZATION ( #120, #98 ) ;
#157 = AXIS2_PLACEMENT_3D ( 'NONE', #155, #11, #151 ) ;
#158 = EDGE_CURVE ( 'NONE', #15, #48, #72, .T. ) ;
#159 = PERSON_AND_ORGANIZATION_ROLE ( 'classification_officer' ) ;
#160 = EDGE_LOOP ( 'NONE', ( #139, #64, #32 ) ) ;
#161 = CARTESIAN_POINT ( 'NONE',  ( 9.367506770274758310E-14, 0.000000000000000000, 10.00000000000000888 ) ) ;
#162 =( NAMED_UNIT ( * ) SI_UNIT ( $, .STERADIAN. ) SOLID_ANGLE_UNIT ( ) );
#163 = CC_DESIGN_APPROVAL ( #182, ( #80 ) ) ;
#164 = EDGE_CURVE ( 'NONE', #93, #13, #193, .T. ) ;
#165 = AXIS2_PLACEMENT_3D ( 'NONE', #61, #89, #8 ) ;
#166 = CC_DESIGN_DATE_AND_TIME_ASSIGNMENT ( #145, #201, ( #80 ) ) ;
#167 =( GEOMETRIC_REPRESENTATION_CONTEXT ( 3 ) GLOBAL_UNCERTAINTY_ASSIGNED_CONTEXT ( ( #22 ) ) GLOBAL_UNIT_ASSIGNED_CONTEXT ( ( #118, #36, #162 ) ) REPRESENTATION_CONTEXT ( 'NONE', 'WORKASPACE' ) );
#168 = CARTESIAN_POINT ( 'NONE',  ( 25.40000000000512514, 3.110602869834904798E-15, 10.00000000000000888 ) ) ;
#169 = FACE_OUTER_BOUND ( 'NONE', #127, .T. ) ;
#170 = SPHERICAL_SURFACE ( 'NONE', #157, 750.0000000000001137 ) ;
#171 = AXIS2_PLACEMENT_3D ( 'NONE', #152, #178, #137 ) ;
#172 = PERSON_AND_ORGANIZATION_ROLE ( 'creator' ) ;
#173 = CALENDAR_DATE ( 2021, 25, 2 ) ;
#174 = APPROVAL_PERSON_ORGANIZATION ( #68, #182, #54 ) ;
#175 = COORDINATED_UNIVERSAL_TIME_OFFSET ( 2, 0, .AHEAD. ) ;
#176 = APPROVAL_ROLE ( '' ) ;
#177 = APPLICATION_CONTEXT ( 'configuration controlled 3d designs of mechanical parts and assemblies' ) ;
#178 = DIRECTION ( 'NONE',  ( 0.000000000000000000, 0.000000000000000000, 1.000000000000000000 ) ) ;
#179 = CARTESIAN_POINT ( 'NONE',  ( 25.39999999999999858, 3.110602869834276865E-15, 10.00000000000000000 ) ) ;
#180 = CARTESIAN_POINT ( 'NONE',  ( 9.367506770274758310E-14, 0.000000000000000000, 759.5697699347272192 ) ) ;
#181 = CARTESIAN_POINT ( 'NONE',  ( -25.40000000000493330, 0.000000000000000000, 10.00000000000000888 ) ) ;
#182 = APPROVAL ( #132, 'UNSPECIFIED' ) ;
#183 = DIRECTION ( 'NONE',  ( 0.000000000000000000, 1.000000000000000000, -0.000000000000000000 ) ) ;
#184 = APPROVAL_DATE_TIME ( #52, #194 ) ;
#185 = VERTEX_POINT ( 'NONE', #154 ) ;
#186 = APPROVAL_STATUS ( 'not_yet_approved' ) ;
#187 = PERSON_AND_ORGANIZATION ( #120, #98 ) ;
#188 = ORIENTED_EDGE ( 'NONE', *, *, #164, .F. ) ;
#189 = AXIS2_PLACEMENT_3D ( 'NONE', #63, #111, #21 ) ;
#190 = EDGE_CURVE ( 'NONE', #93, #48, #19, .T. ) ;
#191 = LOCAL_TIME ( 15, 31, 19.00000000000000000, #34 ) ;
#192 = CIRCLE ( 'NONE', #94, 25.39999999999999858 ) ;
#193 = LINE ( 'NONE', #179, #88 ) ;
#194 = APPROVAL ( #67, 'UNSPECIFIED' ) ;
#195 = DESIGN_CONTEXT ( 'detailed design', #177, 'design' ) ;
#196 = CARTESIAN_POINT ( 'NONE',  ( 9.367506770274758310E-14, 0.000000000000000000, 10.00000000000000888 ) ) ;
#197 = DIRECTION ( 'NONE',  ( -0.000000000000000000, -0.000000000000000000, -1.000000000000000000 ) ) ;
#198 = ORIENTED_EDGE ( 'NONE', *, *, #31, .T. ) ;
#199 = PERSON_AND_ORGANIZATION ( #120, #98 ) ;
#200 = DATE_TIME_ROLE ( 'creation_date' ) ;
#201 = DATE_TIME_ROLE ( 'classification_date' ) ;
ENDSEC;
END-ISO-10303-21;
