ISO-10303-21;
HEADER;
FILE_DESCRIPTION (( 'STEP AP203' ),
    '1' );
FILE_NAME ('010-1507E_UVFS_PCV_window.STEP',
    '2021-02-25T13:30:36',
    ( '' ),
    ( '' ),
    'SwSTEP 2.0',
    'SolidWorks 2019',
    '' );
FILE_SCHEMA (( 'CONFIG_CONTROL_DESIGN' ));
ENDSEC;

DATA;
#1 = ORIENTED_EDGE ( 'NONE', *, *, #112, .T. ) ;
#2 = AXIS2_PLACEMENT_3D ( 'NONE', #109, #26, #67 ) ;
#3 = DIRECTION ( 'NONE',  ( 1.000000000000000000, 1.224646799147353207E-16, 0.000000000000000000 ) ) ;
#4 = CC_DESIGN_APPROVAL ( #19, ( #158 ) ) ;
#5 = EDGE_CURVE ( 'NONE', #145, #129, #149, .T. ) ;
#6 = APPROVAL_ROLE ( '' ) ;
#7 = EDGE_CURVE ( 'NONE', #129, #85, #48, .T. ) ;
#8 = LOCAL_TIME ( 15, 30, 36.00000000000000000, #163 ) ;
#9 = DIRECTION ( 'NONE',  ( 1.000000000000000000, 0.000000000000000000, 0.000000000000000000 ) ) ;
#10 = FACE_OUTER_BOUND ( 'NONE', #199, .T. ) ;
#11 = DIRECTION ( 'NONE',  ( -0.000000000000000000, -0.000000000000000000, -1.000000000000000000 ) ) ;
#12 = DIRECTION ( 'NONE',  ( 0.000000000000000000, -1.000000000000000000, -0.000000000000000000 ) ) ;
#13 = CARTESIAN_POINT ( 'NONE',  ( 1.130672369174001071E-13, 0.000000000000000000, 9.462125575920076415 ) ) ;
#14 = APPROVAL ( #136, 'UNSPECIFIED' ) ;
#15 = APPROVAL_PERSON_ORGANIZATION ( #89, #14, #76 ) ;
#16 = CARTESIAN_POINT ( 'NONE',  ( 25.39999999999999858, 3.110602869834276865E-15, 0.000000000000000000 ) ) ;
#17 = APPROVAL_STATUS ( 'not_yet_approved' ) ;
#18 = PERSON_AND_ORGANIZATION_ROLE ( 'creator' ) ;
#19 = APPROVAL ( #17, 'UNSPECIFIED' ) ;
#20 = CC_DESIGN_PERSON_AND_ORGANIZATION_ASSIGNMENT ( #102, #103, ( #34 ) ) ;
#21 = LOCAL_TIME ( 15, 30, 36.00000000000000000, #131 ) ;
#22 = PRODUCT ( '010-1507E_UVFS_PCV_window', '010-1507E_UVFS_PCV_window', '', ( #152 ) ) ;
#23 = ORIENTED_EDGE ( 'NONE', *, *, #119, .F. ) ;
#24 = FACE_OUTER_BOUND ( 'NONE', #30, .T. ) ;
#25 = CARTESIAN_POINT ( 'NONE',  ( 7.632783294297951215E-14, 0.000000000000000000, 609.4621255759199130 ) ) ;
#26 = DIRECTION ( 'NONE',  ( 0.000000000000000000, 0.000000000000000000, 1.000000000000000000 ) ) ;
#27 = AXIS2_PLACEMENT_3D ( 'NONE', #197, #64, #122 ) ;
#28 = MANIFOLD_SOLID_BREP ( 'Cut-Revolve1', #71 ) ;
#29 = CC_DESIGN_PERSON_AND_ORGANIZATION_ASSIGNMENT ( #130, #120, ( #121 ) ) ;
#30 = EDGE_LOOP ( 'NONE', ( #174, #94, #115, #83 ) ) ;
#31 = AXIS2_PLACEMENT_3D ( 'NONE', #154, #11, #93 ) ;
#32 = APPROVAL_DATE_TIME ( #56, #160 ) ;
#33 = CARTESIAN_POINT ( 'NONE',  ( 0.000000000000000000, 0.000000000000000000, 0.000000000000000000 ) ) ;
#34 = PRODUCT_DEFINITION ( 'UNKNOWN', '', #158, #180 ) ;
#35 = APPROVAL_DATE_TIME ( #134, #14 ) ;
#36 = FACE_OUTER_BOUND ( 'NONE', #70, .T. ) ;
#37 = DATE_AND_TIME ( #194, #75 ) ;
#38 = APPLICATION_CONTEXT ( 'configuration controlled 3d designs of mechanical parts and assemblies' ) ;
#39 = CALENDAR_DATE ( 2021, 25, 2 ) ;
#40 = CIRCLE ( 'NONE', #195, 599.9999999999997726 ) ;
#41 = LOCAL_TIME ( 15, 30, 36.00000000000000000, #161 ) ;
#42 = ADVANCED_FACE ( 'NONE', ( #10 ), #198, .F. ) ;
#43 = LINE ( 'NONE', #80, #84 ) ;
#44 = CARTESIAN_POINT ( 'NONE',  ( 0.000000000000000000, 0.000000000000000000, 0.000000000000000000 ) ) ;
#45 = DIRECTION ( 'NONE',  ( 1.224646799147353207E-16, -1.000000000000000000, 0.000000000000000000 ) ) ;
#46 = DIRECTION ( 'NONE',  ( -0.000000000000000000, -0.000000000000000000, -1.000000000000000000 ) ) ;
#47 = CYLINDRICAL_SURFACE ( 'NONE', #164, 25.39999999999999858 ) ;
#48 = LINE ( 'NONE', #110, #100 ) ;
#49 = EDGE_CURVE ( 'NONE', #50, #85, #128, .T. ) ;
#50 = VERTEX_POINT ( 'NONE', #183 ) ;
#51 = APPROVAL_PERSON_ORGANIZATION ( #116, #160, #77 ) ;
#52 = EDGE_LOOP ( 'NONE', ( #143, #127, #189 ) ) ;
#53 = CALENDAR_DATE ( 2021, 25, 2 ) ;
#54 = PLANE ( 'NONE',  #144 ) ;
#55 = EDGE_CURVE ( 'NONE', #145, #126, #177, .T. ) ;
#56 = DATE_AND_TIME ( #53, #8 ) ;
#57 = CALENDAR_DATE ( 2021, 25, 2 ) ;
#58 = APPLICATION_PROTOCOL_DEFINITION ( 'international standard', 'config_control_design', 1994, #175 ) ;
#59 = AXIS2_PLACEMENT_3D ( 'NONE', #156, #45, #3 ) ;
#60 = CC_DESIGN_DATE_AND_TIME_ASSIGNMENT ( #88, #73, ( #121 ) ) ;
#61 = DIRECTION ( 'NONE',  ( 0.000000000000000000, 0.000000000000000000, 1.000000000000000000 ) ) ;
#62 = UNCERTAINTY_MEASURE_WITH_UNIT (LENGTH_MEASURE( 1.000000000000000082E-05 ), #92, 'distance_accuracy_value', 'NONE');
#63 = CIRCLE ( 'NONE', #155, 25.39999999999628599 ) ;
#64 = DIRECTION ( 'NONE',  ( 0.000000000000000000, -1.000000000000000000, -0.000000000000000000 ) ) ;
#65 = APPLICATION_PROTOCOL_DEFINITION ( 'international standard', 'config_control_design', 1994, #38 ) ;
#66 = DIRECTION ( 'NONE',  ( 1.000000000000000000, 0.000000000000000000, 0.000000000000000000 ) ) ;
#67 = DIRECTION ( 'NONE',  ( 1.000000000000000000, 0.000000000000000000, 0.000000000000000000 ) ) ;
#68 = PERSON ( 'UNSPECIFIED', 'UNSPECIFIED', 'UNSPECIFIED', ('UNSPECIFIED'), ('UNSPECIFIED'), ('UNSPECIFIED') ) ;
#69 = EDGE_LOOP ( 'NONE', ( #200, #1, #201, #113 ) ) ;
#70 = EDGE_LOOP ( 'NONE', ( #72, #23 ) ) ;
#71 = CLOSED_SHELL ( 'NONE', ( #42, #178, #99, #79, #165 ) ) ;
#72 = ORIENTED_EDGE ( 'NONE', *, *, #49, .F. ) ;
#73 = DATE_TIME_ROLE ( 'classification_date' ) ;
#74 = APPROVAL_STATUS ( 'not_yet_approved' ) ;
#75 = LOCAL_TIME ( 15, 30, 36.00000000000000000, #191 ) ;
#76 = APPROVAL_ROLE ( '' ) ;
#77 = APPROVAL_ROLE ( '' ) ;
#78 = CC_DESIGN_APPROVAL ( #160, ( #121 ) ) ;
#79 = ADVANCED_FACE ( 'NONE', ( #36 ), #54, .F. ) ;
#80 = CARTESIAN_POINT ( 'NONE',  ( -25.39999999999999858, 0.000000000000000000, 10.00000000000000000 ) ) ;
#81 = DIRECTION ( 'NONE',  ( 1.000000000000000000, 0.000000000000000000, 0.000000000000000000 ) ) ;
#82 = DIRECTION ( 'NONE',  ( -0.000000000000000000, -0.000000000000000000, -1.000000000000000000 ) ) ;
#83 = ORIENTED_EDGE ( 'NONE', *, *, #139, .F. ) ;
#84 = VECTOR ( 'NONE', #46, 1000.000000000000000 ) ;
#85 = VERTEX_POINT ( 'NONE', #16 ) ;
#86 = ORGANIZATION ( 'UNSPECIFIED', 'UNSPECIFIED', '' ) ;
#87 = DIRECTION ( 'NONE',  ( 0.000000000000000000, 0.000000000000000000, 1.000000000000000000 ) ) ;
#88 = DATE_AND_TIME ( #57, #114 ) ;
#89 = PERSON_AND_ORGANIZATION ( #68, #86 ) ;
#90 = SHAPE_DEFINITION_REPRESENTATION ( #137, #118 ) ;
#91 = PRODUCT_RELATED_PRODUCT_CATEGORY ( 'detail', '', ( #22 ) ) ;
#92 =( LENGTH_UNIT ( ) NAMED_UNIT ( * ) SI_UNIT ( .MILLI., .METRE. ) );
#93 = DIRECTION ( 'NONE',  ( -1.000000000000000000, 0.000000000000000000, 0.000000000000000000 ) ) ;
#94 = ORIENTED_EDGE ( 'NONE', *, *, #7, .T. ) ;
#95 = SPHERICAL_SURFACE ( 'NONE', #27, 599.9999999999998863 ) ;
#96 = DIRECTION ( 'NONE',  ( 1.000000000000000000, 0.000000000000000000, 0.000000000000000000 ) ) ;
#97 = AXIS2_PLACEMENT_3D ( 'NONE', #123, #141, #96 ) ;
#98 = DIRECTION ( 'NONE',  ( 0.000000000000000000, 1.000000000000000000, -0.000000000000000000 ) ) ;
#99 = ADVANCED_FACE ( 'NONE', ( #186 ), #47, .T. ) ;
#100 = VECTOR ( 'NONE', #107, 1000.000000000000000 ) ;
#101 = EDGE_CURVE ( 'NONE', #129, #126, #40, .T. ) ;
#102 = PERSON_AND_ORGANIZATION ( #68, #86 ) ;
#103 = PERSON_AND_ORGANIZATION_ROLE ( 'creator' ) ;
#104 = PERSON_AND_ORGANIZATION ( #68, #86 ) ;
#105 = CARTESIAN_POINT ( 'NONE',  ( 0.000000000000000000, 0.000000000000000000, 10.00000000000000000 ) ) ;
#106 = AXIS2_PLACEMENT_3D ( 'NONE', #44, #61, #81 ) ;
#107 = DIRECTION ( 'NONE',  ( -0.000000000000000000, -0.000000000000000000, -1.000000000000000000 ) ) ;
#108 = DIRECTION ( 'NONE',  ( -0.000000000000000000, -0.000000000000000000, -1.000000000000000000 ) ) ;
#109 = CARTESIAN_POINT ( 'NONE',  ( 0.000000000000000000, 0.000000000000000000, 0.000000000000000000 ) ) ;
#110 = CARTESIAN_POINT ( 'NONE',  ( 25.39999999999999858, 3.110602869834276865E-15, 10.00000000000000000 ) ) ;
#111 = AXIS2_PLACEMENT_3D ( 'NONE', #25, #12, #66 ) ;
#112 = EDGE_CURVE ( 'NONE', #129, #145, #63, .T. ) ;
#113 = ORIENTED_EDGE ( 'NONE', *, *, #49, .T. ) ;
#114 = LOCAL_TIME ( 15, 30, 36.00000000000000000, #190 ) ;
#115 = ORIENTED_EDGE ( 'NONE', *, *, #119, .T. ) ;
#116 = PERSON_AND_ORGANIZATION ( #68, #86 ) ;
#117 = AXIS2_PLACEMENT_3D ( 'NONE', #153, #185, #170 ) ;
#118 = ADVANCED_BREP_SHAPE_REPRESENTATION ( '010-1507E_UVFS_PCV_window', ( #28, #106 ), #173 ) ;
#119 = EDGE_CURVE ( 'NONE', #85, #50, #140, .T. ) ;
#120 = PERSON_AND_ORGANIZATION_ROLE ( 'classification_officer' ) ;
#121 = SECURITY_CLASSIFICATION ( '', '', #147 ) ;
#122 = DIRECTION ( 'NONE',  ( 1.000000000000000000, 0.000000000000000000, 0.000000000000000000 ) ) ;
#123 = CARTESIAN_POINT ( 'NONE',  ( 0.000000000000000000, 0.000000000000000000, 0.000000000000000000 ) ) ;
#124 = DIRECTION ( 'NONE',  ( -1.000000000000000000, 0.000000000000000000, 0.000000000000000000 ) ) ;
#125 = CC_DESIGN_SECURITY_CLASSIFICATION ( #121, ( #158 ) ) ;
#126 = VERTEX_POINT ( 'NONE', #13 ) ;
#127 = ORIENTED_EDGE ( 'NONE', *, *, #112, .F. ) ;
#128 = CIRCLE ( 'NONE', #97, 25.39999999999999858 ) ;
#129 = VERTEX_POINT ( 'NONE', #181 ) ;
#130 = PERSON_AND_ORGANIZATION ( #68, #86 ) ;
#131 = COORDINATED_UNIVERSAL_TIME_OFFSET ( 2, 0, .AHEAD. ) ;
#132 = CC_DESIGN_DATE_AND_TIME_ASSIGNMENT ( #162, #176, ( #34 ) ) ;
#133 = CC_DESIGN_APPROVAL ( #14, ( #34 ) ) ;
#134 = DATE_AND_TIME ( #39, #21 ) ;
#135 = APPROVAL_DATE_TIME ( #37, #19 ) ;
#136 = APPROVAL_STATUS ( 'not_yet_approved' ) ;
#137 = PRODUCT_DEFINITION_SHAPE ( 'NONE', 'NONE',  #34 ) ;
#138 = FACE_OUTER_BOUND ( 'NONE', #52, .T. ) ;
#139 = EDGE_CURVE ( 'NONE', #145, #50, #43, .T. ) ;
#140 = CIRCLE ( 'NONE', #2, 25.39999999999999858 ) ;
#141 = DIRECTION ( 'NONE',  ( 0.000000000000000000, 0.000000000000000000, 1.000000000000000000 ) ) ;
#142 = CYLINDRICAL_SURFACE ( 'NONE', #31, 25.39999999999999858 ) ;
#143 = ORIENTED_EDGE ( 'NONE', *, *, #55, .F. ) ;
#144 = AXIS2_PLACEMENT_3D ( 'NONE', #33, #87, #159 ) ;
#145 = VERTEX_POINT ( 'NONE', #184 ) ;
#146 = ORIENTED_EDGE ( 'NONE', *, *, #5, .F. ) ;
#147 = SECURITY_CLASSIFICATION_LEVEL ( 'unclassified' ) ;
#148 = CC_DESIGN_PERSON_AND_ORGANIZATION_ASSIGNMENT ( #104, #193, ( #158 ) ) ;
#149 = CIRCLE ( 'NONE', #117, 25.39999999999628599 ) ;
#150 = PERSON_AND_ORGANIZATION ( #68, #86 ) ;
#151 = PERSON_AND_ORGANIZATION ( #68, #86 ) ;
#152 = MECHANICAL_CONTEXT ( 'NONE', #38, 'mechanical' ) ;
#153 = CARTESIAN_POINT ( 'NONE',  ( 7.632783294297951215E-14, 0.000000000000000000, 10.00000000000000888 ) ) ;
#154 = CARTESIAN_POINT ( 'NONE',  ( 0.000000000000000000, 0.000000000000000000, 10.00000000000000000 ) ) ;
#155 = AXIS2_PLACEMENT_3D ( 'NONE', #172, #82, #9 ) ;
#156 = CARTESIAN_POINT ( 'NONE',  ( 7.632783294297951215E-14, 0.000000000000000000, 609.4621255759199130 ) ) ;
#157 = DIRECTION ( 'NONE',  ( 0.000000000000000000, 0.000000000000000000, 1.000000000000000000 ) ) ;
#158 = PRODUCT_DEFINITION_FORMATION_WITH_SPECIFIED_SOURCE ( 'ANY', '', #22, .NOT_KNOWN. ) ;
#159 = DIRECTION ( 'NONE',  ( 1.000000000000000000, 0.000000000000000000, -0.000000000000000000 ) ) ;
#160 = APPROVAL ( #74, 'UNSPECIFIED' ) ;
#161 = COORDINATED_UNIVERSAL_TIME_OFFSET ( 2, 0, .AHEAD. ) ;
#162 = DATE_AND_TIME ( #192, #41 ) ;
#163 = COORDINATED_UNIVERSAL_TIME_OFFSET ( 2, 0, .AHEAD. ) ;
#164 = AXIS2_PLACEMENT_3D ( 'NONE', #105, #108, #124 ) ;
#165 = ADVANCED_FACE ( 'NONE', ( #138 ), #95, .F. ) ;
#166 = PERSON_AND_ORGANIZATION_ROLE ( 'design_owner' ) ;
#167 =( NAMED_UNIT ( * ) SI_UNIT ( $, .STERADIAN. ) SOLID_ANGLE_UNIT ( ) );
#168 = CARTESIAN_POINT ( 'NONE',  ( 7.632783294297951215E-14, 0.000000000000000000, 609.4621255759199130 ) ) ;
#169 = PERSON_AND_ORGANIZATION ( #68, #86 ) ;
#170 = DIRECTION ( 'NONE',  ( 1.000000000000000000, 0.000000000000000000, 0.000000000000000000 ) ) ;
#171 = CC_DESIGN_PERSON_AND_ORGANIZATION_ASSIGNMENT ( #151, #18, ( #158 ) ) ;
#172 = CARTESIAN_POINT ( 'NONE',  ( 7.632783294297951215E-14, 0.000000000000000000, 10.00000000000000888 ) ) ;
#173 =( GEOMETRIC_REPRESENTATION_CONTEXT ( 3 ) GLOBAL_UNCERTAINTY_ASSIGNED_CONTEXT ( ( #62 ) ) GLOBAL_UNIT_ASSIGNED_CONTEXT ( ( #92, #182, #167 ) ) REPRESENTATION_CONTEXT ( 'NONE', 'WORKASPACE' ) );
#174 = ORIENTED_EDGE ( 'NONE', *, *, #5, .T. ) ;
#175 = APPLICATION_CONTEXT ( 'configuration controlled 3d designs of mechanical parts and assemblies' ) ;
#176 = DATE_TIME_ROLE ( 'creation_date' ) ;
#177 = CIRCLE ( 'NONE', #59, 599.9999999999998863 ) ;
#178 = ADVANCED_FACE ( 'NONE', ( #24 ), #142, .T. ) ;
#179 = APPROVAL_PERSON_ORGANIZATION ( #150, #19, #6 ) ;
#180 = DESIGN_CONTEXT ( 'detailed design', #175, 'design' ) ;
#181 = CARTESIAN_POINT ( 'NONE',  ( 25.39999999999636415, 3.110602869834054406E-15, 10.00000000000000888 ) ) ;
#182 =( NAMED_UNIT ( * ) PLANE_ANGLE_UNIT ( ) SI_UNIT ( $, .RADIAN. ) );
#183 = CARTESIAN_POINT ( 'NONE',  ( -25.39999999999999858, 0.000000000000000000, 0.000000000000000000 ) ) ;
#184 = CARTESIAN_POINT ( 'NONE',  ( -25.39999999999621139, 0.000000000000000000, 10.00000000000000888 ) ) ;
#185 = DIRECTION ( 'NONE',  ( -0.000000000000000000, -0.000000000000000000, -1.000000000000000000 ) ) ;
#186 = FACE_OUTER_BOUND ( 'NONE', #69, .T. ) ;
#187 = ORIENTED_EDGE ( 'NONE', *, *, #101, .F. ) ;
#188 = ORIENTED_EDGE ( 'NONE', *, *, #55, .T. ) ;
#189 = ORIENTED_EDGE ( 'NONE', *, *, #101, .T. ) ;
#190 = COORDINATED_UNIVERSAL_TIME_OFFSET ( 2, 0, .AHEAD. ) ;
#191 = COORDINATED_UNIVERSAL_TIME_OFFSET ( 2, 0, .AHEAD. ) ;
#192 = CALENDAR_DATE ( 2021, 25, 2 ) ;
#193 = PERSON_AND_ORGANIZATION_ROLE ( 'design_supplier' ) ;
#194 = CALENDAR_DATE ( 2021, 25, 2 ) ;
#195 = AXIS2_PLACEMENT_3D ( 'NONE', #168, #98, #157 ) ;
#196 = CC_DESIGN_PERSON_AND_ORGANIZATION_ASSIGNMENT ( #169, #166, ( #22 ) ) ;
#197 = CARTESIAN_POINT ( 'NONE',  ( 7.632783294297951215E-14, 0.000000000000000000, 609.4621255759199130 ) ) ;
#198 = SPHERICAL_SURFACE ( 'NONE', #111, 599.9999999999998863 ) ;
#199 = EDGE_LOOP ( 'NONE', ( #146, #188, #187 ) ) ;
#200 = ORIENTED_EDGE ( 'NONE', *, *, #7, .F. ) ;
#201 = ORIENTED_EDGE ( 'NONE', *, *, #139, .T. ) ;
ENDSEC;
END-ISO-10303-21;
