ISO-10303-21;
HEADER;
FILE_DESCRIPTION (( 'STEP AP203' ),
    '1' );
FILE_NAME ('010-1506E_UVFS_PCV_window.STEP',
    '2021-02-25T13:29:57',
    ( '' ),
    ( '' ),
    'SwSTEP 2.0',
    'SolidWorks 2019',
    '' );
FILE_SCHEMA (( 'CONFIG_CONTROL_DESIGN' ));
ENDSEC;

DATA;
#1 = CC_DESIGN_PERSON_AND_ORGANIZATION_ASSIGNMENT ( #82, #161, ( #80 ) ) ;
#2 = PRODUCT_DEFINITION ( 'UNKNOWN', '', #166, #66 ) ;
#3 = COORDINATED_UNIVERSAL_TIME_OFFSET ( 2, 0, .AHEAD. ) ;
#4 = CC_DESIGN_APPROVAL ( #51, ( #166 ) ) ;
#5 = APPLICATION_PROTOCOL_DEFINITION ( 'international standard', 'config_control_design', 1994, #134 ) ;
#6 = CARTESIAN_POINT ( 'NONE',  ( -25.39999999999999858, 0.000000000000000000, 0.000000000000000000 ) ) ;
#7 = ADVANCED_FACE ( 'NONE', ( #125 ), #184, .T. ) ;
#8 = AXIS2_PLACEMENT_3D ( 'NONE', #167, #140, #106 ) ;
#9 = ADVANCED_BREP_SHAPE_REPRESENTATION ( '010-1506E_UVFS_PCV_window', ( #27, #172 ), #95 ) ;
#10 = FACE_OUTER_BOUND ( 'NONE', #170, .T. ) ;
#11 = CC_DESIGN_DATE_AND_TIME_ASSIGNMENT ( #33, #171, ( #80 ) ) ;
#12 = CARTESIAN_POINT ( 'NONE',  ( 4.163336342344337027E-14, 0.000000000000000000, 308.9227993981054396 ) ) ;
#13 = DIRECTION ( 'NONE',  ( 1.224646799147353207E-16, -1.000000000000000000, 0.000000000000000000 ) ) ;
#14 = EDGE_LOOP ( 'NONE', ( #109, #114, #25 ) ) ;
#15 = ORIENTED_EDGE ( 'NONE', *, *, #102, .T. ) ;
#16 = APPROVAL_ROLE ( '' ) ;
#17 = APPROVAL_ROLE ( '' ) ;
#18 = CARTESIAN_POINT ( 'NONE',  ( 4.163336342344337027E-14, 0.000000000000000000, 10.00000000000000888 ) ) ;
#19 = DIRECTION ( 'NONE',  ( 0.000000000000000000, 0.000000000000000000, 1.000000000000000000 ) ) ;
#20 = CIRCLE ( 'NONE', #168, 300.0000000000000000 ) ;
#21 = CARTESIAN_POINT ( 'NONE',  ( 25.40000000000015845, 3.110602869834296192E-15, 10.00000000000000888 ) ) ;
#22 = EDGE_CURVE ( 'NONE', #100, #142, #75, .T. ) ;
#23 = PLANE ( 'NONE',  #46 ) ;
#24 = EDGE_LOOP ( 'NONE', ( #201, #69, #143, #92 ) ) ;
#25 = ORIENTED_EDGE ( 'NONE', *, *, #193, .T. ) ;
#26 = AXIS2_PLACEMENT_3D ( 'NONE', #18, #163, #83 ) ;
#27 = MANIFOLD_SOLID_BREP ( 'Cut-Revolve1', #88 ) ;
#28 = AXIS2_PLACEMENT_3D ( 'NONE', #135, #39, #36 ) ;
#29 = CC_DESIGN_PERSON_AND_ORGANIZATION_ASSIGNMENT ( #97, #81, ( #166 ) ) ;
#30 = CALENDAR_DATE ( 2021, 25, 2 ) ;
#31 = ADVANCED_FACE ( 'NONE', ( #10 ), #104, .F. ) ;
#32 = DATE_AND_TIME ( #189, #42 ) ;
#33 = DATE_AND_TIME ( #190, #121 ) ;
#34 = DATE_AND_TIME ( #30, #112 ) ;
#35 = DIRECTION ( 'NONE',  ( 1.000000000000000000, 0.000000000000000000, 0.000000000000000000 ) ) ;
#36 = DIRECTION ( 'NONE',  ( -1.000000000000000000, 0.000000000000000000, 0.000000000000000000 ) ) ;
#37 = PERSON_AND_ORGANIZATION ( #165, #198 ) ;
#38 = DIRECTION ( 'NONE',  ( 0.000000000000000000, -1.000000000000000000, -0.000000000000000000 ) ) ;
#39 = DIRECTION ( 'NONE',  ( -0.000000000000000000, -0.000000000000000000, -1.000000000000000000 ) ) ;
#40 = PRODUCT_RELATED_PRODUCT_CATEGORY ( 'detail', '', ( #144 ) ) ;
#41 = CC_DESIGN_PERSON_AND_ORGANIZATION_ASSIGNMENT ( #145, #85, ( #2 ) ) ;
#42 = LOCAL_TIME ( 15, 29, 57.00000000000000000, #72 ) ;
#43 = CARTESIAN_POINT ( 'NONE',  ( 4.163336342344337027E-14, 0.000000000000000000, 10.00000000000000888 ) ) ;
#44 = APPROVAL_PERSON_ORGANIZATION ( #111, #51, #174 ) ;
#45 = DIRECTION ( 'NONE',  ( 0.000000000000000000, -1.000000000000000000, -0.000000000000000000 ) ) ;
#46 = AXIS2_PLACEMENT_3D ( 'NONE', #123, #90, #124 ) ;
#47 = DIRECTION ( 'NONE',  ( 0.000000000000000000, 0.000000000000000000, 1.000000000000000000 ) ) ;
#48 = CARTESIAN_POINT ( 'NONE',  ( 0.000000000000000000, 0.000000000000000000, 10.00000000000000000 ) ) ;
#49 = LINE ( 'NONE', #186, #195 ) ;
#50 = EDGE_LOOP ( 'NONE', ( #154, #147 ) ) ;
#51 = APPROVAL ( #177, 'UNSPECIFIED' ) ;
#52 = CC_DESIGN_PERSON_AND_ORGANIZATION_ASSIGNMENT ( #53, #58, ( #144 ) ) ;
#53 = PERSON_AND_ORGANIZATION ( #165, #198 ) ;
#54 = CC_DESIGN_SECURITY_CLASSIFICATION ( #80, ( #166 ) ) ;
#55 = APPROVAL_PERSON_ORGANIZATION ( #115, #127, #17 ) ;
#56 = APPROVAL_DATE_TIME ( #173, #127 ) ;
#57 = APPLICATION_PROTOCOL_DEFINITION ( 'international standard', 'config_control_design', 1994, #122 ) ;
#58 = PERSON_AND_ORGANIZATION_ROLE ( 'design_owner' ) ;
#59 = CARTESIAN_POINT ( 'NONE',  ( 4.163336342344337027E-14, 0.000000000000000000, 308.9227993981054396 ) ) ;
#60 = CARTESIAN_POINT ( 'NONE',  ( 0.000000000000000000, 0.000000000000000000, 0.000000000000000000 ) ) ;
#61 = MECHANICAL_CONTEXT ( 'NONE', #122, 'mechanical' ) ;
#62 = EDGE_CURVE ( 'NONE', #142, #100, #182, .T. ) ;
#63 = VECTOR ( 'NONE', #196, 1000.000000000000000 ) ;
#64 = DIRECTION ( 'NONE',  ( 1.000000000000000000, 1.224646799147353207E-16, 0.000000000000000000 ) ) ;
#65 = CARTESIAN_POINT ( 'NONE',  ( -25.40000000000007319, 0.000000000000000000, 10.00000000000000888 ) ) ;
#66 = DESIGN_CONTEXT ( 'detailed design', #134, 'design' ) ;
#67 = AXIS2_PLACEMENT_3D ( 'NONE', #153, #47, #91 ) ;
#68 = ORIENTED_EDGE ( 'NONE', *, *, #87, .T. ) ;
#69 = ORIENTED_EDGE ( 'NONE', *, *, #108, .T. ) ;
#70 = APPROVAL_DATE_TIME ( #148, #51 ) ;
#71 = LOCAL_TIME ( 15, 29, 57.00000000000000000, #99 ) ;
#72 = COORDINATED_UNIVERSAL_TIME_OFFSET ( 2, 0, .AHEAD. ) ;
#73 = VERTEX_POINT ( 'NONE', #6 ) ;
#74 = SHAPE_DEFINITION_REPRESENTATION ( #187, #9 ) ;
#75 = CIRCLE ( 'NONE', #149, 25.40000000000011227 ) ;
#76 = EDGE_CURVE ( 'NONE', #142, #73, #49, .T. ) ;
#77 = FACE_OUTER_BOUND ( 'NONE', #14, .T. ) ;
#78 = SPHERICAL_SURFACE ( 'NONE', #156, 300.0000000000000000 ) ;
#79 = VERTEX_POINT ( 'NONE', #105 ) ;
#80 = SECURITY_CLASSIFICATION ( '', '', #162 ) ;
#81 = PERSON_AND_ORGANIZATION_ROLE ( 'creator' ) ;
#82 = PERSON_AND_ORGANIZATION ( #165, #198 ) ;
#83 = DIRECTION ( 'NONE',  ( 1.000000000000000000, 0.000000000000000000, 0.000000000000000000 ) ) ;
#84 = FACE_OUTER_BOUND ( 'NONE', #107, .T. ) ;
#85 = PERSON_AND_ORGANIZATION_ROLE ( 'creator' ) ;
#86 =( LENGTH_UNIT ( ) NAMED_UNIT ( * ) SI_UNIT ( .MILLI., .METRE. ) );
#87 = EDGE_CURVE ( 'NONE', #142, #130, #192, .T. ) ;
#88 = CLOSED_SHELL ( 'NONE', ( #31, #7, #199, #128, #93 ) ) ;
#89 = LOCAL_TIME ( 15, 29, 57.00000000000000000, #116 ) ;
#90 = DIRECTION ( 'NONE',  ( 0.000000000000000000, 0.000000000000000000, 1.000000000000000000 ) ) ;
#91 = DIRECTION ( 'NONE',  ( 1.000000000000000000, 0.000000000000000000, 0.000000000000000000 ) ) ;
#92 = ORIENTED_EDGE ( 'NONE', *, *, #76, .F. ) ;
#93 = ADVANCED_FACE ( 'NONE', ( #77 ), #78, .F. ) ;
#94 = DIRECTION ( 'NONE',  ( -0.000000000000000000, -0.000000000000000000, -1.000000000000000000 ) ) ;
#95 =( GEOMETRIC_REPRESENTATION_CONTEXT ( 3 ) GLOBAL_UNCERTAINTY_ASSIGNED_CONTEXT ( ( #183 ) ) GLOBAL_UNIT_ASSIGNED_CONTEXT ( ( #86, #119, #117 ) ) REPRESENTATION_CONTEXT ( 'NONE', 'WORKASPACE' ) );
#96 = CIRCLE ( 'NONE', #8, 25.39999999999999858 ) ;
#97 = PERSON_AND_ORGANIZATION ( #165, #198 ) ;
#98 = APPROVAL ( #129, 'UNSPECIFIED' ) ;
#99 = COORDINATED_UNIVERSAL_TIME_OFFSET ( 2, 0, .AHEAD. ) ;
#100 = VERTEX_POINT ( 'NONE', #21 ) ;
#101 = APPROVAL_STATUS ( 'not_yet_approved' ) ;
#102 = EDGE_CURVE ( 'NONE', #73, #79, #96, .T. ) ;
#103 = DIRECTION ( 'NONE',  ( -0.000000000000000000, -0.000000000000000000, -1.000000000000000000 ) ) ;
#104 = SPHERICAL_SURFACE ( 'NONE', #158, 300.0000000000000000 ) ;
#105 = CARTESIAN_POINT ( 'NONE',  ( 25.39999999999999858, 3.110602869834276865E-15, 0.000000000000000000 ) ) ;
#106 = DIRECTION ( 'NONE',  ( 1.000000000000000000, 0.000000000000000000, 0.000000000000000000 ) ) ;
#107 = EDGE_LOOP ( 'NONE', ( #200, #133, #126, #15 ) ) ;
#108 = EDGE_CURVE ( 'NONE', #100, #79, #152, .T. ) ;
#109 = ORIENTED_EDGE ( 'NONE', *, *, #87, .F. ) ;
#110 = APPROVAL_PERSON_ORGANIZATION ( #37, #98, #16 ) ;
#111 = PERSON_AND_ORGANIZATION ( #165, #198 ) ;
#112 = LOCAL_TIME ( 15, 29, 57.00000000000000000, #136 ) ;
#113 = DIRECTION ( 'NONE',  ( 1.000000000000000000, 0.000000000000000000, 0.000000000000000000 ) ) ;
#114 = ORIENTED_EDGE ( 'NONE', *, *, #22, .F. ) ;
#115 = PERSON_AND_ORGANIZATION ( #165, #198 ) ;
#116 = COORDINATED_UNIVERSAL_TIME_OFFSET ( 2, 0, .AHEAD. ) ;
#117 =( NAMED_UNIT ( * ) SI_UNIT ( $, .STERADIAN. ) SOLID_ANGLE_UNIT ( ) );
#118 = CALENDAR_DATE ( 2021, 25, 2 ) ;
#119 =( NAMED_UNIT ( * ) PLANE_ANGLE_UNIT ( ) SI_UNIT ( $, .RADIAN. ) );
#120 = DIRECTION ( 'NONE',  ( -0.000000000000000000, -0.000000000000000000, -1.000000000000000000 ) ) ;
#121 = LOCAL_TIME ( 15, 29, 57.00000000000000000, #3 ) ;
#122 = APPLICATION_CONTEXT ( 'configuration controlled 3d designs of mechanical parts and assemblies' ) ;
#123 = CARTESIAN_POINT ( 'NONE',  ( 0.000000000000000000, 0.000000000000000000, 0.000000000000000000 ) ) ;
#124 = DIRECTION ( 'NONE',  ( 1.000000000000000000, 0.000000000000000000, -0.000000000000000000 ) ) ;
#125 = FACE_OUTER_BOUND ( 'NONE', #24, .T. ) ;
#126 = ORIENTED_EDGE ( 'NONE', *, *, #76, .T. ) ;
#127 = APPROVAL ( #101, 'UNSPECIFIED' ) ;
#128 = ADVANCED_FACE ( 'NONE', ( #181 ), #23, .F. ) ;
#129 = APPROVAL_STATUS ( 'not_yet_approved' ) ;
#130 = VERTEX_POINT ( 'NONE', #197 ) ;
#131 = AXIS2_PLACEMENT_3D ( 'NONE', #48, #94, #157 ) ;
#132 = APPROVAL_DATE_TIME ( #32, #98 ) ;
#133 = ORIENTED_EDGE ( 'NONE', *, *, #22, .T. ) ;
#134 = APPLICATION_CONTEXT ( 'configuration controlled 3d designs of mechanical parts and assemblies' ) ;
#135 = CARTESIAN_POINT ( 'NONE',  ( 0.000000000000000000, 0.000000000000000000, 10.00000000000000000 ) ) ;
#136 = COORDINATED_UNIVERSAL_TIME_OFFSET ( 2, 0, .AHEAD. ) ;
#137 = AXIS2_PLACEMENT_3D ( 'NONE', #12, #13, #64 ) ;
#138 = CC_DESIGN_PERSON_AND_ORGANIZATION_ASSIGNMENT ( #160, #191, ( #166 ) ) ;
#139 = DIRECTION ( 'NONE',  ( 1.000000000000000000, 0.000000000000000000, 0.000000000000000000 ) ) ;
#140 = DIRECTION ( 'NONE',  ( 0.000000000000000000, 0.000000000000000000, 1.000000000000000000 ) ) ;
#141 = CIRCLE ( 'NONE', #67, 25.39999999999999858 ) ;
#142 = VERTEX_POINT ( 'NONE', #65 ) ;
#143 = ORIENTED_EDGE ( 'NONE', *, *, #159, .T. ) ;
#144 = PRODUCT ( '010-1506E_UVFS_PCV_window', '010-1506E_UVFS_PCV_window', '', ( #61 ) ) ;
#145 = PERSON_AND_ORGANIZATION ( #165, #198 ) ;
#146 = DATE_TIME_ROLE ( 'creation_date' ) ;
#147 = ORIENTED_EDGE ( 'NONE', *, *, #159, .F. ) ;
#148 = DATE_AND_TIME ( #118, #71 ) ;
#149 = AXIS2_PLACEMENT_3D ( 'NONE', #43, #103, #151 ) ;
#150 = CC_DESIGN_DATE_AND_TIME_ASSIGNMENT ( #34, #146, ( #2 ) ) ;
#151 = DIRECTION ( 'NONE',  ( 1.000000000000000000, 0.000000000000000000, 0.000000000000000000 ) ) ;
#152 = LINE ( 'NONE', #169, #63 ) ;
#153 = CARTESIAN_POINT ( 'NONE',  ( 0.000000000000000000, 0.000000000000000000, 0.000000000000000000 ) ) ;
#154 = ORIENTED_EDGE ( 'NONE', *, *, #102, .F. ) ;
#155 = CC_DESIGN_APPROVAL ( #98, ( #80 ) ) ;
#156 = AXIS2_PLACEMENT_3D ( 'NONE', #180, #45, #139 ) ;
#157 = DIRECTION ( 'NONE',  ( -1.000000000000000000, 0.000000000000000000, 0.000000000000000000 ) ) ;
#158 = AXIS2_PLACEMENT_3D ( 'NONE', #59, #38, #35 ) ;
#159 = EDGE_CURVE ( 'NONE', #79, #73, #141, .T. ) ;
#160 = PERSON_AND_ORGANIZATION ( #165, #198 ) ;
#161 = PERSON_AND_ORGANIZATION_ROLE ( 'classification_officer' ) ;
#162 = SECURITY_CLASSIFICATION_LEVEL ( 'unclassified' ) ;
#163 = DIRECTION ( 'NONE',  ( -0.000000000000000000, -0.000000000000000000, -1.000000000000000000 ) ) ;
#164 = DIRECTION ( 'NONE',  ( 0.000000000000000000, 0.000000000000000000, 1.000000000000000000 ) ) ;
#165 = PERSON ( 'UNSPECIFIED', 'UNSPECIFIED', 'UNSPECIFIED', ('UNSPECIFIED'), ('UNSPECIFIED'), ('UNSPECIFIED') ) ;
#166 = PRODUCT_DEFINITION_FORMATION_WITH_SPECIFIED_SOURCE ( 'ANY', '', #144, .NOT_KNOWN. ) ;
#167 = CARTESIAN_POINT ( 'NONE',  ( 0.000000000000000000, 0.000000000000000000, 0.000000000000000000 ) ) ;
#168 = AXIS2_PLACEMENT_3D ( 'NONE', #194, #178, #19 ) ;
#169 = CARTESIAN_POINT ( 'NONE',  ( 25.39999999999999858, 3.110602869834276865E-15, 10.00000000000000000 ) ) ;
#170 = EDGE_LOOP ( 'NONE', ( #188, #68, #185 ) ) ;
#171 = DATE_TIME_ROLE ( 'classification_date' ) ;
#172 = AXIS2_PLACEMENT_3D ( 'NONE', #60, #164, #113 ) ;
#173 = DATE_AND_TIME ( #175, #89 ) ;
#174 = APPROVAL_ROLE ( '' ) ;
#175 = CALENDAR_DATE ( 2021, 25, 2 ) ;
#176 = CYLINDRICAL_SURFACE ( 'NONE', #28, 25.39999999999999858 ) ;
#177 = APPROVAL_STATUS ( 'not_yet_approved' ) ;
#178 = DIRECTION ( 'NONE',  ( 0.000000000000000000, 1.000000000000000000, -0.000000000000000000 ) ) ;
#179 = CC_DESIGN_APPROVAL ( #127, ( #2 ) ) ;
#180 = CARTESIAN_POINT ( 'NONE',  ( 4.163336342344337027E-14, 0.000000000000000000, 308.9227993981054396 ) ) ;
#181 = FACE_OUTER_BOUND ( 'NONE', #50, .T. ) ;
#182 = CIRCLE ( 'NONE', #26, 25.40000000000011227 ) ;
#183 = UNCERTAINTY_MEASURE_WITH_UNIT (LENGTH_MEASURE( 1.000000000000000082E-05 ), #86, 'distance_accuracy_value', 'NONE');
#184 = CYLINDRICAL_SURFACE ( 'NONE', #131, 25.39999999999999858 ) ;
#185 = ORIENTED_EDGE ( 'NONE', *, *, #193, .F. ) ;
#186 = CARTESIAN_POINT ( 'NONE',  ( -25.39999999999999858, 0.000000000000000000, 10.00000000000000000 ) ) ;
#187 = PRODUCT_DEFINITION_SHAPE ( 'NONE', 'NONE',  #2 ) ;
#188 = ORIENTED_EDGE ( 'NONE', *, *, #62, .F. ) ;
#189 = CALENDAR_DATE ( 2021, 25, 2 ) ;
#190 = CALENDAR_DATE ( 2021, 25, 2 ) ;
#191 = PERSON_AND_ORGANIZATION_ROLE ( 'design_supplier' ) ;
#192 = CIRCLE ( 'NONE', #137, 300.0000000000000000 ) ;
#193 = EDGE_CURVE ( 'NONE', #100, #130, #20, .T. ) ;
#194 = CARTESIAN_POINT ( 'NONE',  ( 4.163336342344337027E-14, 0.000000000000000000, 308.9227993981054396 ) ) ;
#195 = VECTOR ( 'NONE', #120, 1000.000000000000000 ) ;
#196 = DIRECTION ( 'NONE',  ( -0.000000000000000000, -0.000000000000000000, -1.000000000000000000 ) ) ;
#197 = CARTESIAN_POINT ( 'NONE',  ( 6.000306541065366773E-14, 0.000000000000000000, 8.922799398105475177 ) ) ;
#198 = ORGANIZATION ( 'UNSPECIFIED', 'UNSPECIFIED', '' ) ;
#199 = ADVANCED_FACE ( 'NONE', ( #84 ), #176, .T. ) ;
#200 = ORIENTED_EDGE ( 'NONE', *, *, #108, .F. ) ;
#201 = ORIENTED_EDGE ( 'NONE', *, *, #62, .T. ) ;
ENDSEC;
END-ISO-10303-21;
